Guitar tablature for Gasoline by Seether
#----------------------------------PLEASE NOTE---------------------------------#
#This file is the author's own work and represents their interpretation of the #
#song. You may only use this file for private study, scholarship, or research. #
#------------------------------------------------------------------------------##

Band; Seether
Song; Gasoline
Album; Disclaimer
Tabbed by Marco Ruela
e-mail darramen@yahoo.com

This tab is for the version of gasoline thatÆs on the new album ôDisclaimerö,
youÆll need two guitars. If its not right then tough, and donÆt worry if it
looks long its mostly repeated.


Intro 1 (GTR 1)
e|------x------------------------X-X-X-X-X-------X-X-X-X-X-------X-X-X-X-X-------X-X-X-X-X--|
B|-----x-------------------------X-X-X-X-X-------X-X-X-X-X-------X-X-X-X-X-------X-X-X-X-X--|
G|----x---------------------1-1--X-X-X-X-X--1-1--X-X-X-X-X--1-1--X-X-X-X-X--1-1--X-X-X-X-X--|
D|---x----------------------2-2--X-X-X-X-X--2-2--X-X-X-X-X--2-2--X-X-X-X-X--2-2--X-X-X-X-X--|
A|--x-----------------------2-2--X-X-X-X-X--2-2--X-X-X-X-X--2-2--X-X-X-X-X--2-2--X-X-X-X-X--|
E|-x--------------\12------------X-X-X-X-X-------X-X-X-X-X-------X-X-X-X-X-------X-X-X-X-X--|
|________|                       
  Feedback

  (GTR 2)
e|---------------------------------------------------------------X-X-X-X-X-------X-X-X-X-X--|
B|---------------------------------------------------------------X-X-X-X-X-------X-X-X-X-X--|
G|----------------------------------------------------------1-1--X-X-X-X-X--1-1--X-X-X-X-X--|
D|----------------------------------------------------------2-2--X-X-X-X-X--2-2--X-X-X-X-X--|
A|----------------------------------------------------------2-2--X-X-X-X-X--2-2--X-X-X-X-X--|
E|---------------------------------------------------------------X-X-X-X-X-------X-X-X-X-X--|



Intro 2 (GTR 1)
e|--------------------------------------------------------------------------------------------|
B|--------------------------------------------------------------------------------------------|
G|--1-1ù-5h7-7-5-7/8\7--1-1ù5h7-7-5-7/8\7--1-1-5h7-7-5-7/8\7--1-1-5h7-7-5-7/8\7---------------|   
D|--2-2-----------------2-2----------------2-2----------------2-2-----------------------------|
A|--2-2ù----------------2-2----------------2-2----------------2-2-----------------------------|
E|--------------------------------------------------------------------------------------------|                    


   (GTR 2)
e|--------------------------------------------------------------------------------------------|
B|--------------------------------------------------------------------------------------------|
G|--1-1ù-7/9-9-7-7/10-10--1-1ù-7/9-9-7-7/10-10--1-1ù-7/9-9-7-7/10-10--1-1ù7/9-9-7-7/12-12-----|   
D|--2-2--X-X-X-X-X-X--X---2-2--X-X-X-X-X/X--X---2-2ù-X/X-X-X-X/X--X---2-2-X-X-X-X-X-X--X------|
A|--2-2ù-5/7-7-5-5/8--8---2-2ù-5/7-7-5-5/8--8---2-2ù-5/7-7-5-5/8--8---2-2-5/7-7-5-5/10-10-----|
E|--------------------------------------------------------------------------------------------|                    

Verse (GTR 1)
e|-------X-X-X-X-X-------X-X-X-X-X------------------------------------------------------------|
B|-------X-X-X-X-X-------X-X-X-X-X------------------------------------------------------------|
G|--1-1--X-X-X-X-X--1-1--X-X-X-X-X--1-1----1-1------------------------|5h7-7-5-7/8\7|---------|   
D|--2-2--X-X-X-X-X--2-2--X-X-X-X-X--2-2----2-2------------------------|--------------|--------|
A|--2-2--X-X-X-X-X--2-2--X-X-X-X-X--2-2----2-2------------------------|----------------|------|
E|-------X-X-X-X-X-------X-X-X-X-X-----------------------------------|-------------------|---|
ôLast night I saw that beauty queen watched her paint her face onö  |PLAY AT END OF 2nd LINE|
ôWanna be the magazine that she bases life onö

(GTR 2)
e|-------X-X-X-X-X-------X-X-X-X-X----------------0-0-----------------------------------------|
B|-------X-X-X-X-X-------X-X-X-X-X----------------0-0----------------------------------------|
G|--1-1--X-X-X-X-X--1-1--X-X-X-X-X--1-1----1-1---|1-1|----------------------------------------|   
D|--2-2--X-X-X-X-X--2-2--X-X-X-X-X--2-2----2-2----|---|---------------------------------------|
A|--2-2--X-X-X-X-X--2-2--X-X-X-X-X--2-2----2-2------|---|-------------------------------------|
E|-------X-X-X-X-X-------X-X-X-X-X------------------|---|-------------------------------------|
                                                 |PLAY AT END OF 2nd LINE|
Verse (GTR1 + 2)
ôWanna waste her monthly bloodö
ôWanna get some of my loveö
ôWanna get some gasoline and burn the house downö

Chorus (GTR 1 + 2)
e|------------------------------------------------------------------------------|
B|------------------------------------------------------------------------------|
G|--1----5/7-7------------------------------------------------------------------|
D|--2----5/7-7--5-X-5-----------------------------------------------------------|
A|--2----3/5-5--5-X-5-----------------------------------------------------------|
E|-------3/5-5--3-X-3-----------------------------------------------------------|
               ôSheÆs got nothing to sayö
               ôSheÆs got bills to payö
               ôSheÆs got no one to hateö
               ôExcept for me..ö

Intro 2 (GTR 1 + 2)

Verse (GTR 1 + 2)
ôLast night I saw that beauty queen watched her cut her face offö
ôWanna be the magazine that she bases life onö  

Verse (GTR 1 + 2)
ôWanna waste her monthly bloodö
ôWanna get some of my loveö
ôWanna get some gasoline and burn the house downö

Chorus (GTR 1 + 2)

Interlude (GTR 1 + 2)
e|--------------------------------------------------|
B|--------------------------------------------------|
G|--7\6-6-6\5-5-5\4-4-------------------------------|
D|--7\6-6-6\5-5-5\4-4--5----------------------------|
A|--5\4-4-4\3-3-3\2-2--5----------------------------|
E|--5\4-4-4\3-3-3\2-2--3----------------------------|
ôMEEEEEEEEEEEEEEEEEEEEEEEEEEEEEEEEEEEEEEEö
ôMEEEEEEEEEEEEEEEEEEEEEEEEEEEEEEEEEEEEEEEö

Other Part (GTR 2)
e|---------------------------------------------------|
B|---------------------------------------------------|
G|--------------------------------------------1-1----|
D|--------------------------------------------2-2----|
A|--------------------------------------------2-2----|
E|---------------------------------------------------|
ôWhen I watched that beauty queen watched her paint her face onö
ôwanna be the magazine that she wipes her ass onö

(GTR 2)
e|---------------------------------------------------|
B|---------------------------------------------------|
G|--9-9-9-9-9-10-10-9-9-9-9-9------------------------|
D|---------------------------------------------------|
A|---------------------------------------------------|
E|---------------------------------------------------|


Verse (GTR 1 + 2)

Chorus x2 (GTR 1 + 2)

Outro (GTR 1)
e|---------------------------------------------------|
B|---------------------------------------------------|
G|-1-X-5/7----1-X------------------------------------|
D|-2-X-5/7-5--2-X-----------------------/9-9-9-9-9-9-|
A|-2-X-3/5-5--2-X------------------------------------|
E|-----3/5-3-----------------------------------------|
  |REPEAT A COUPLE OF TIMES|                 
  

(GTR 2)
e|---------------------------------------------------|
B|---------------------------------------------------|
G|-9-9-9-9-9-9-9-9-9-9-9-9-9-9-9-9-9-9-9-9-----------|
D|---------------------------------------------------|
A|---------------------------------------------------|
E|---------------------------------------------------|
                                           |FADE OUT|

ThatÆs how far I got. Now donÆt go and download the song,
BUY THE CD (IT ROCKS).
Join the bulletin board on seether.com


---------------------------
This file passed through:
       Absolute Tabs
   http://www.tabs.co.za
---------------------------