Guitar tablature for Hero's by Leery
#----------------------------------PLEASE NOTE---------------------------------#
#This file is the author's own work and represents their interpretation of the #
#song. You may only use this file for private study, scholarship, or research. #
#------------------------------------------------------------------------------##


     SONG: HERO'S
   ARTIST: LEERY
     TYPE: Guitar Tablature
TABBED BY: Gerrie van Eeden
    EMAIL: gj_777@yahoo.com
COMMENTS: DAMN!!!!!!! This was difficult to tab...and I'm
           not gonna say it's 100% correct..but it's pretty
           close!!! I'm not sure about the solo and interlude
           and lyrics, but it's better than nothing!! E-mail
           corrections and suggestions to me  gj_777@yahoo.com

riff 1 - part 1
e:----------7-------------7h8--------------------|
b:--10-------------10----------10---8----7----8--|
g:-----9------9-------9--------9----7----6----7--|
d:-------7------7-------7------7----5----4----5--|
a:-----------------------------------------------|
e:-----------------------------------------------|

riff 1 - part 2
e:----------7--------------7--------------------------|
b:--10-------------10--------------7----8----10----8--|
g:-----9------9-------9------9-----6----7-----9----7--|
d:-------7------7-------7------7---4----5-----7----5--|
a:----------------------------------------------------|
e:----------------------------------------------------|

riff 2  (chorus)
     Emin  G     C     B                              
                                    
e:---0-----3-----3-----2----|
b:---0-----3-----5-----4----|
g:---0-----4-----5-----4----|
d:---2-----5-----5-----4----|
a:---2-----5-----3-----2----|
e:---0-----3-----X-----X----|


INTERLUDE
riff 3                x times     end with:
e:--------10-----------------------|---------10---10---12~---|
b:------8-----8-----8--10--8--10---|------8------------------|
g:---9-----------9-----------------|---9---------------------|
d:---------------------------------|-------------------------|
a:---------------------------------|-------------------------|
e:---------------------------------|-------------------------|


GT2:  B  A  C  G  D  A  C  G  B  (over solo)          
            
lead into solo
e:--------10-----------------------|
b:------8-----8-----8--10--8--10---|
g:---9-----------9-----------------|
d:---------------------------------|
a:---------------------------------|
e:---------------------------------|

SOLO
riff 4
e:---14~--14~---14~----12-----------12----------|--15--14--15p14p12-12--10---|
b:----------------------------15----------------|----------------------------|
g:---------------------------------------14~----|----------------------------|
d:----------------------------------------------|----------------------------|
a:----------------------------------------------|----------------------------|
e:----------------------------------------------|----------------------------|

e:---------10-------10-------10-------10--------10--10--12~~~--|
b:------10-------10-------10-------10--------10-----10---------|
g:---11-------11-------11-------11--------11-------------------|
d:-------------------------------------------------------------|
a:-------------------------------------------------------------|
e:-------------------------------------------------------------|

outro
e:--17--15---17--15--14h15p14h15-17~--|
b:------------------------------------|
g:------------------------------------|
d:------------------------------------|
a:------------------------------------|
e:------------------------------------|

VERSE 1 riff 1
There's a wind that blows
the sands of time around us
There's a bell that tolls
For those gone before us
Which were the heroes
long past forgotten
Who gave their lives for those around them
and brought peace and happiness about them

 CHORUS
 GT1+2: riff 2 (distortion)
 we won't forget you know
 no we won't
 forget you know
 you heroes
 you didn't die in vain
 suffer, pain
 no we won't
 forget you know
 you heroes

INTERLUDE
GT1: riff 3
GT2: CHORUS (SOFTLY)


VERSE 2 riff 1
For those that died in vain
we all remembered your name
we will remember you and
all you did for mankind
to the hero
you've left your presence here
and I hope and pray
that we'll do the same
 
 CHORUS
 GT1+2: riff 2 (distortion) 
 we won't forget you know
 no we won't
 forget you know
 you heroes
 you didn't die in vain
 suffer, pain
 no we won't
 forget you know
 you heroes
GT2: LET LAST B RING....GO ON INTO SOLO CHORDS

SOLO
GT1: riff 4
GT2: B  A  C  G  D  A  C  G  B


 we won't forget you know
 no we won't
 forget you know
 you heroes
 you didn't die in vain
 suffer, pain
 no we won't
 forget you know
 you heroes
 you didn't die in vain
 suffer, pain
 no we won't
 forget you know
 you heroes
 you heroes


IF YOU DOWNLOADED THIS TAB PLEASE EMAIL ME SO THAT I
CAN KNOW HOW MANY PEOPLE ARE VIEWING IT...JUST FOR
INTERESTS SAKE!!!!


---------------------------
This file passed through:
       Absolute Tabs
   http://www.tabs.co.za
---------------------------