Bass tablature for Swanesang by Fokofpolisiekar (tabbed by crumpuppet)
#----------------------------------PLEASE NOTE---------------------------------#
#This file is the author's own work and represents their interpretation of the #
#song. You may only use this file for private study, scholarship, or research. #
#------------------------------------------------------------------------------##

Tab deur Hannes van Zyl

Fokofpolisiekar - Swanesang

main riff
(x4)
G|------------------------------------------|
D|------------------------------------------|
A|-2222-2222-2222-5555----------------------|
D|---------------------5555-5555-5555-2-2-2-|


(0:40)
(x3)
G|---------------------|
D|---------------------|
A|-----------------22--|
D|-44--444-55--555-----|

G|---------------------|
D|---------------------|
A|-2222-2222---22-22---|
D|---------------------|



(1:02 - "selfvoldaan...")
(x4)
G|-------------------------------|
D|-------------------------------|
A|-----------5555-2222-2222-0000-|
D|-5555-5555---------------------|


(1:22)
(x2)
G|---------------|
D|---------------|
A|-2~--5---------|
D|--------5~---2-|

(1:34 - "een nul trippel een...")
(x4)
G|------------------------------------------|
D|------------------------------------------|
A|-2222-2222-2222-5555----------------------|
D|---------------------5555-5555-5555-2-2-2-|


(1:47)
(x3)
G|---------------------|
D|---------------------|
A|-----------------22--|
D|-44--444-55--555-----|

G|---------------------|
D|---------------------|
A|-2222-2222---22-22---|
D|---------------------|


(-wag 'n beat-, dan 2:11 - "selfvoldaan...")
G|-------------------------------|
D|-------------------------------|
A|-----------5555-2222-2222-0000-|
D|-------------------------------|
(x3)
G|-------------------------------|
D|-------------------------------|
A|-----------5555-2222-2222-0000-|
D|-5555-5555---------------------|



(2:29)
(x2)
G|-----------------------|
D|-----------------------|
A|------5555-22-x-x-0000-|
D|-55--------------------|

(x2)
G|-------------------------------|
D|-------------------------------|
A|-----------5555-2222-2222-0000-|
D|-5555-5555---------------------|


(2:48)
G|--------------------------------------|
D|--------------------------------------|
A|-2222-2222-2222-2222-2222-2222-2222---|
D|------------------------------------4-|

---------------------------
This file passed through:
       Absolute Tabs
   http://www.tabs.co.za
---------------------------