Guitar tablature for Hey! by AK Massive, The
#----------------------------------PLEASE NOTE---------------------------------#
#This file is the author's own work and represents their interpretation of the #
#song. You may only use this file for private study, scholarship, or research. #
#------------------------------------------------------------------------------##

AK Massive-Hey!
Tabbed by: James Catto

this is only tabs for 1 of the guitars in the song if you know the rest or
have any other great sa tabs email the to me at dyl_di@email.com

Dropped "D"     >=let ring x=mute

INTRO(clean) play intro through verses
E|-------------------------------------------------|
B|-------------------------------------------------|
G|-------------------------------------------------|
D|-7----7--xs---9---9----x--11---11-11-12-12-11-11-|
A|-7----7--xs---9---9----x--11---11-11-12-12-11-11-|
D|-7----7--xs---9---9----x--11---11-11-12-12-11-11-|

E|-------------------------------------------------|
B|-------------------------------------------------|
G|-------------------------------------------------|
D|-7----7--xs---9---9----x--11---11-11-11-11-11-11-|
A|-7----7--xs---9---9----x--11---11-11-11-11-11-11-|
D|-7----7--xs---9---9----x--11---11-11-11-11-11-11-|



CHORUS(distortion)
E|-------------------------------------------------|         
B|-------------------------------------------------|
G|-------------------------------------------------|
D|-7----7--xx---9---9----x--11---11-11-12-12-11-11-|
A|-7----7--xx---9---9----x--11---11-11-12-12-11-11-|
D|-7----7--xx---9---9----x--11---11-11-12-12-11-11-|

E|-------------------------------------------------|
B|-------------------------------------------------|
G|-------------------------------------------------|
D|-7----7--xx---9---9----x--11---11-11-11-11-11-11-|
A|-7----7--xx---9---9----x--11---11-11-11-11-11-11-|
D|-7----7--xx---9---9----x--11---11-11-11-11-11-11-|

E|-------------------------------------------------|         
B|-------------------------------------------------|
G|-------------------------------------------------|
D|-7----7--xx---9---9----x--11---11-11-12-12-11-11-|
A|-7----7--xx---9---9----x--11---11-11-12-12-11-11-|
D|-7----7--xx---9---9----x--11---11-11-12-12-11-11-|


E|-------------------------------------------------|
B|-------------------------------------------------|
G|-------------------------------------------------|
D|-7----7--xx---9---9----x--11---11>>>>>>>>>>>>>---|
A|-7----7--xx---9---9----x--11---11>>>>>>>>>>>>>---|
D|-7----7--xx---9---9----x--11---11>>>>>>>>>>>>>---|

LISTEN TO THE song FOR THE TIMING AND HOW MANY TO DO-
Near The end there's a riff where you just palm mute the chorus

cheers


---------------------------
This file passed through:
       Absolute Tabs
   http://www.tabs.co.za
---------------------------