Guitar tablature for Bite It by Lithium
#----------------------------------PLEASE NOTE---------------------------------#
#This file is the author's own work and represents their interpretation of the #
#song. You may only use this file for private study, scholarship, or research. #
#------------------------------------------------------------------------------##

LITHIUM - BITE IT
Album : Broken
Tabbed By: Shaun Pretorius - hav@worldonline.co.za

Intro part
E--------------------
B--------------------
G--------------------
D-5s4-4-4--7-7--9-9-9
A-5s4-4-4--7-7--9-9-9
E-3s2-2-2--5-5--7-7-7

E----------------
B----------------
G----------------
D-5s4-4-4--2-2--4
A-5s4-4-4--2-2--4
E-3s2-2-2--0-0--2

{the next part is tricky...I'm not sure about this}
E--------------------------
B--------------------------
G--------------------------
D--------------------------
A-2-2-2-2-2--3-5-----------
E-0-0-0-3p0-------0h3h5p3p0

{the other parts in the song are variations of the intro chords}


---------------------------
This file passed through:
       Absolute Tabs
   http://www.tabs.co.za
---------------------------