Guitar tablature for Cosmo girl by Fallen, The
#----------------------------------PLEASE NOTE---------------------------------#
#This file is the author's own work and represents their interpretation of the #
#song. You may only use this file for private study, scholarship, or research. #
#------------------------------------------------------------------------------##

Absolute Tabs Featured Band (July 2003)
http://www.tabs.co.za/featured/fallen

The Fallen - Cosmo Girl                                    
=======================

Intro
=====
                                                 P.Mv--------------vP.M
E||----------------------|------------------|-------------------------|
B||----------------------|------------------|-------------------------|
G||----------------------|------------------|-------------------------|
D||--7----7----7----7----|------------------|--7----7--7--7--7--7--7--|
A||--7----7----7----7----|------------------|--7----7--7--7--7--7--7--|
E||--5----5----5----5----|------------------|--5----5--5--5--5--5--5--|

                                                             
------------------|----------------------|------------------|
------------------|----------------------|------------------|
------------------|----------------------|------------------|
------------------|--7----7----7----7----|------------------|
------------------|--7----7----7----7----|------------------|
------------------|--5----5----5----5----|------------------|

                                                             
--------------------------|--------------------------||
--------------------------|--------------------------||
--------------------------|--------------------------||
--7--7--7--7--7--7--7--7--|--7--7--7--7--7--7--7--7--||
--7--7--7--7--7--7--7--7--|--7--7--7--7--7--7--7--7--||
--5--5--5--5--5--5--5--5--|--5--5--5--5--5--5--5--5--||


Verse
=====

       P.Mv--------------vP.M
E||-------------------------|
B||-------------------------|
G||-------------------------|
D||--7----7--7--7--7--7--7--|
A||--7----7--7--7--7--7--7--|
E||--5----5--5--5--5--5--5--|
                            
                                          
                          P.Mv--------------vP.M
---------------------|-------------------------|---------------------||
---------------------|-------------------------|---------------------||
--6--------7----6----|-------------------------|----------------9----||      
--6--------7----6----|--7----7--7--7--7--7--7--|--6--------7----9----||  
--4--------5----4----|--7----7--7--7--7--7--7--|--6--------7----7----||
---------------------|--5----5--5--5--5--5--5--|--4--------5---------||


Chorus
======

       P.Mv-----------------------------vP.M              P.Mv--------------vP.M
E||-------------------------|------------------------|-------------------------|
B||-------------------------|------------------------|-------------------------|
G||-------------------------|------------------------|-------------------------|
D||--2----2--2--2--2--2--2--|--2--2--2--2--2----2----|--6----6--6--6--6--6--6--|
A||--2----2--2--2--2--2--2--|--2--2--2--2--2----2----|--6----6--6--6--6--6--6--|
E||--0----0--0--0--0--0--0--|--0--0--0--0--0----0----|--4----4--4--4--4--4--4--|


P.M--------vP.M              P.Mv-----------------------------vP.M
------------------------|-------------------------|------------------------|
------------------------|-------------------------|------------------------|
------------------------|-------------------------|------------------------|
--6--6--6--6--6----6----|--7----7--7--7--7--7--7--|--7--7--7--7--7----7----|
--6--6--6--6--6----6----|--7----7--7--7--7--7--7--|--7--7--7--7--7----7----|
--4--4--4--4--4----4----|--5----5--5--5--5--5--5--|--5--5--5--5--5----5----|


    P.Mv--------------vP.M    P.Mv--------------vP.M
-------------------------|-------------------------||
-------------------------|-------------------------||
-------------------------|--4----4--4--4--4--4--4--||
--2----2--2--2--2--2--2--|--4----4--4--4--4--4--4--||
--2----2--2--2--2--2--2--|--2----2--2--2--2--2--2--||
--0----0--0--0--0--0--0--|-------------------------||

Order as follows :

----------------------------
|Intro                      |
|                           |
|Verse                   x8 |
|Chorus                  x2 |
|Verse                   x8 |
|Solo                       |
|Chorus                  x2 |
|Chorus (half time)      x1 |
|Chorus                  x1 |
---------------------------

Compiled by Markus Lourens

Official website :
http://thefallensa.2ya.com

May The Fallen be with you.


---------------------------
This file passed through:
       Absolute Tabs
   http://www.tabs.co.za
---------------------------