Guitar tablature for Op die voetpad by Chris Chameleon (tabbed by Boskultuur)
#----------------------------------PLEASE NOTE---------------------------------#
#This file is the author's own work and represents their interpretation of the #
#song. You may only use this file for private study, scholarship, or research. #
#------------------------------------------------------------------------------##

Song: Op die Voetpad
Woorde: Ingrid Jonker
Band: Chris Chameleon
Album: Ek herhaal jou
Tabbed by: Phillip Fischer (boskultuur@gmail.com)

Tabs dui aan hoe die akoord gespeel word.  Eintlik baie maklik.  Luister na die liedjie
vir die tempo.



Am                            Em                        C                      
   
E||-------0-----------0--0--|-------0-----------0--0--|-------0----------0--0--|
B||-------1-----------1--1--|-------0-----------0--0--|-------1----------1--1--|
G||-------2-----------2--2--|-------0-----------0--0--|-------0----------0--0--|
D||------------0h--2--------|-------------------------|------------0--2--------|
A||--0----------------------|------------0h--2--------|--3---------------------|
E||-------------------------|--0----------------------|------------------------|


  E7                    B                    
    
-----0---------0--0--|-----2---------2--2--||
-----0---------0--0--|-----4---------4--4--||
-----0---------0--0--|-----4---------4--4--||
---------------------|--------2h--4--------||
--------0h--2--------|--2------------------||
--0------------------|---------------------||


Am
op die voetpad o bokkie

jou hand die myne

en ons huisie staan klaar
   Em
in my hart se lyne
Am
deur die dag van die bij

tot dit rooikrans o bokkie

vannag sluit hom toe
   Em
in ons pondokkie
Am
klimaat van jou lyf

o meidjie dousag
         C
maar jou oë vlieg wys

oor die nimmermeerdag
       Am
en die aand skilfer reeds

sy bont kleure af
         C
waar die voetpad alleen

oor die blou bulte draf

Outro:

Am Em Am Em E7 B Am Em

---------------------------
This file passed through:
       Absolute Tabs
   http://www.tabs.co.za
---------------------------