Guitar tablature for Birthday card by Tweak
#----------------------------------PLEASE NOTE---------------------------------#
#This file is the author's own work and represents their interpretation of the #
#song. You may only use this file for private study, scholarship, or research. #
#------------------------------------------------------------------------------##

Birthday Card
Tweak
The Romantic Lure of Possum Worship
Tabbed By: Mike (mike41@webmail.co.za)

Intro
e|----------------------------------|
B|----------------------------------|
G|----------------------------------|
D|-10-10-10--7-7-7--5--5-5-5--7-5---|
A|-10-10-10--7-7-7--5--5-5-5--7-5---|
E|--8--8--8--5-5-5--3--3-3-3--5-3---|

Pre Verse (Palm mute)
e|---------------------------------------------|
B|---------------------------------------------|
G|---------------------------------------------|
D|-5-5-5-5-5-5-5-5-5-5-5-5--7-7-7-7-7-7-7--5---|
A|-3-3-3-3-3-3-3-3-3-3-3-3--5-5-5-5-5-5-5--3---|
E|---------------------------------------------|

1st Verse
e|-------------------------------|
B|-------------------------------|
G|-------------------------------|
D|-------------------------------|
A|-10-10--7-7--5-5--x-x-x--5-7---|
E|--8--8--5-5--3-3--x-x-x--3-5---|

Pre Chorus
e|--------------------------------------------------|
B|--------------------------------------------------|
G|----------5-5-5-5-----------------------5-5-5-5---|
D|-3-3-3-3--5-5-5-5-----5-5-5-5--7-7-7-7--5-5-5-5---|
A|-3-3-3-3--3-3-3-3-----5-5-5-5--7-7-7-7--3-3-3-3---|
E|-1-1-1-1--------------3-3-3-3--5-5-5-5------------|

(Palm mute)
e|----------------------------|
B|----------------------------|
G|----------------------------|
D|-5-5-5-5-5-5--7-7-7-7-7-7---|
A|-3-3-3-3-3-3--5-5-5-5-5-5---|
E|----------------------------|

Chorus
e|--------------------------------------|
B|--------------------------------------|
G|----------5-5-5-5---------------------|
D|-7-7-7-7--5-5-5-5--7-7-7-7--5-5-5-5---|
A|-7-7-7-7--3-3-3-3--7-7-7-7--5-5-5-5---|
E|-5-5-5-5-----------5-5-5-5--3-3-3-3---|

(Palm mute)
e|---------------------------------------------|
B|---------------------------------------------|
G|---------------------------------------------|
D|-5-5-5-5-5-5-5-5-5-5-5-5--7-7-7-7-7-7-7--5---|
A|-3-3-3-3-3-3-3-3-3-3-3-3--5-5-5-5-5-5-5--3---|
E|---------------------------------------------|

2nd Verse (Palm mute)
e|------------------------------------|
B|------------------------------------|
G|------------------------------------|
D|------------------------------------|
A|-10-10-10--7-7-7--5-5--5-5-5--5-7---|
E|--8--8--8--5-5-5--3-3--3-3-3--3-5---|

End of 3rd Chorus
e|-------------------------------------------------------|
B|-------------------------------------------------------|
G|-5-5--x-x-5-5--x-x-5-5--x-x-5-5--x-x-7-7--x-x-7-7--5---|
D|-5-5--x-x-5-5--x-x-5-5--x-x-5-5--x-x-7-7--x-x-7-7--5---|
A|-3-3--x-x-3-3--x-x-3-3--x-x-3-3--x-x-5-5--x-x-5-5--3---|
E|-------------------------------------------------------|

Bridge
Guitar 1
e|-----------------------------------------|
B|-----------------------------8-----------|
G|----9--------9--------9--------9----10---|
D|-10---10--10---10--10---10-------10------|
A|-----------------------------------------|
E|-----------------------------------------|

Guitar 2
e|---------------------------|
B|---------------------------|
G|---------------------------|
D|-xx10-x10-x10-x10-x10-10---|
A|---------------------------|
E|---------------------------|

e|------------------------------|
B|------------------------------|
G|------------------------------|
D|-10-10--12-12--14-14--15-14---|
A|------------------------------|
E|------------------------------|


---------------------------
This file passed through:
       Absolute Tabs
   http://www.tabs.co.za
---------------------------