Guitar tablature for Friends by Tweak
#----------------------------------PLEASE NOTE---------------------------------#
#This file is the author's own work and represents their interpretation of the #
#song. You may only use this file for private study, scholarship, or research. #
#------------------------------------------------------------------------------##

Tabbed By Peter Guest
Artist : Tweak
Song   : Friends

This is all that i figured out about this song!!
It sounds right.


E |------------------------------------------------------------------
B |------------------------------------------------------------------
G |-6--6--6-----------------7--7--7----------------------------------
D |-6--6--6-----7--7--7-----7--7--7-----8--10-10---------------------
A |-8--8--8-----7--7--7-----5--5--5-----8--10-10---------------------
E |-------------5--5--5-----5--5--5-----6--8--8----------------------

The funny little jingle thing near the beginning


E |------------------------------------------------------------------
B |----------------------------------------------12------------------
G |-12-9-----10----12-9-----10----12-9-----10-------9--10------------
D |------------------------------------------------------------------
A |------------------------------------------------------------------
E |------------------------------------------------------------------



---------------------------
This file passed through:
       Absolute Tabs
   http://www.tabs.co.za
---------------------------