Guitar tablature for She says by Cutting Jade
#----------------------------------PLEASE NOTE---------------------------------#
#This file is the author's own work and represents their interpretation of the #
#song. You may only use this file for private study, scholarship, or research. #
#------------------------------------------------------------------------------##


Date: Tue, 11 May 2004 20:49:22 +0200
From: Arthur Maydell
Subject: c/cutting_jade/she_says.tab

Artist: Cutting Jade
Tabbed Song: She Says
Band Website: www.cutingjade.com
Tabbed by: Arthur (arty@mweb.co.za)
Date: 08 May 2004

Tuning:  Eb Ab Db Gb Bb Eb  
(all strings tuned down half a step, but it can be played on standard
tuning)



INTRO


          Am        Asus2   
|-3-3s5---0-----0---0-0-0---0-0-0--0-0---0---0-0-0-0------|
|-------3-1-----1p0-0-0-1---1-1-0--0-0h1-1p0-0-1-1-1p0----|
|---------2-----2---2-2-2---2-2-2--2-2---2---2-2-2-2------|
|---------2-----2---2-2-2---2-2-2--2-2---2---2-2-2-2------|
|---------0-----0---0-0-0---0-0-0--0-0---0---0-0-0-0------|
|---------0-----0---0-0-0---0-0-0--0-0---0---0-0-0-0------|

          C
|-3-3s5---0--0-0--0-0-0-0-0-0-0-0--0-0----|
|-------3-1--1-1--3-1-0-1-3-1-0-1--0-1----|
|---------0--0-0--0-0-0-0-0-0-0-0--0-0----|
|---------2--2-2--2-2-2-2-2-2-2-2--2-2----|
|---------3--3-3--3-3-3-3-3-3-3-3--3-3----|
|-----------------------------------------|




VERSE

  C          G      Am
|-0----------3------0--0-0--0-0-0----|
|-1----------0------1--1-1--0-1-3----|
|-0----------0------2--2-2--2-2-2----|
|-2----------0------2--2-2--2-2-2----|
|-3----------2------0--0-0--0-0-0----|
|-0----------3------0--0-0--0-0-0----|

  "She says she's not perfect..."




PRE CHORUS

  F                      G
|-1----------------------3----|
|-1----------------------0----|
|-2----------------------0----|
|-3----------------------0----|
|-3----------------------2----|
|-1----------------------3----|

"He doesn't know how... he doesn't know why..."


CHORUS

  C                   G                      Am                F
|-0-------------------3----------------------0-----------------1----|
|-1-------------------0----------------------1-----------------1----|
|-0-------------------0----------------------2-----------------2----|
|-2-------------------0----------------------2-----------------3----|
|-3-------------------2----------------------0-----------------3----|
|-3-------------------3----------------------0-----------------1----|

   "Maybe I'm just a little sentimental baby gotta find a girl just as
crazy..."

---------------------------
This file passed through:
       Absolute Tabs
   http://www.tabs.co.za
---------------------------