Guitar tablature for Broken by Seether (tabbed by soafdrox)
#----------------------------------PLEASE NOTE---------------------------------#
#This file is the author's own work and represents their interpretation of the #
#song. You may only use this file for private study, scholarship, or research. #
#------------------------------------------------------------------------------##

Hey

had a look n tried to play the other versions of this song but neither of them sound correct and seem a bit too complicated. so i decided to tab it out so that its more correct and easier, particularly for beginners and such a kiff song.

                       Chords Used

                         Em         C         Dsus       G         D
h= Hammer              --0----------0----------0---------3---------2------
p= Pull Off            --0----------1----------3---------0---------3------
/= Slide down          --0----------0----------2---------0---------2------
()= Harmonics          --2----------2----------0---------0---------0------
                       --2----------3----------x---------2---------x------
                       --0----------0----------x---------3---------x------

listen to the track for timing, here goes...

intro:

e|-2h3-------3--3------3--------------2h3-------3--3------3-----------
b|-------3------3-----3-3----3--------------3------3-----3-3----3-----
g|--------0-----0----0------0----------------0-----0----0------0------
d|-2------------2----------0----------2------------2----------0-------
a|--------------3----------------------------------3------------------
E|--------------------------------------------------------------------


e|-2h3-------3--3------3--------------0h2-----4p2----0h2-------4p2----
b|-------3------3-----3-3----3-------------3------3-------3-3------3--
g|--------0-----0----0------0---------------2--------------2--------2-
d|-2------------2----------0----------0-------------------------------
a|--------------3-----------------------------------------------------
E|--------------------------------------------------------------------


First Verse:
Em       C           Em         C
I wanted you to know I love the way you laugh

Em       C           Dsus       Dsus
I wanna hold you high and steal your pain away

Em       C           Em         C
I keep your photograph; I know it serves me well

Em       C           Dsus       Dsus
I wanna hold you high and steal your pain


Chorus:
C        G           D          Em
‘cause I’m broken when I’m open
C        G           D          Em
And I don’t feel like I am strong enough
C        G           D          Em
‘cause I’m broken when I’m lonesome
C        G           D          Em
And I don’t feel light when you’re gone away

Second Verse:
Em       C           Em         C
The worst is over now and we can breathe again
Em       C           Dsus       Dsus
I wanna hold you high, you steal my pain away
Em       C           Em         C
There’s so much left to learn, and no one left to fight
Em       C           Dsus       Dsus
I wanna hold you high and steal your pain

Chorus:
C        G           D          Em
‘cause I’m broken when I’m open
C        G           D          Em
And I don’t feel like I am strong enough
C        G           D          Em
‘cause I’m broken when I’m lonesome
C        G           D          Em
And I don’t feel right when you’re gone away

Solo:
e-------------------------------------0--------------------
b-----------------------------------0---0------------------
g----------------------------------------------------------
d-------0-2-2/5-4-4/2-4/2-2--------------------------------
a---0-2----------------------------------------------------
E-0--------------------------------------------------------

e----------------------------------------------------------
b----------------------------------------------------------
g-----------------------------------7-5-4-2h4-4-4----------
d-------0-2-2/5-4-4/2-4/2-7--------------------------------
a---0-2----------------------------------------------------
E-0--------------------------------------------------------

e-------------------------------------------0--------------
b-----------------------------------------0----------------
g----------------------------------------------------------
d-------0-2-2/5-4-4/2-4/2-7-5-2----------------------------
a---0-2----------------------------------------------------
E-0--------------------------------------------------------

e----------------------------------------------------------
b----------------------------------------------------------
g-----------------------------------7-5-4-2h4-4-4----------
d-------0-2-2/5-4-4/2-4/2-7--------------------------------
a---0-2----------------------------------------------------
E-0--------------------------------------------------------

Chorus:
C        G           D          Em
‘cause I’m broken when I’m open
C        G           D          Em
And I don’t feel like I am strong enough
C        G           D          Em
‘cause I’m broken when I’m lonesome
C        G           D          Em
And I don’t feel light when you’re gone away

Outro:

e--(12)-------------(12)--------------(12)------------(12)--------------(12)----
b----(12)-------------(12)---(7)--------(12)------------(12)---(7)------(12)----
g------------(12)-------------(7)--------------(12)-------------(7)-----(12)----
d----------(12)----------------(7)-----------(12)----------------(7)------------
a-------------------------------------------------------------------------------
E-------------------------------------------------------------------------------

have fun...

any queries comments or corrections mail me darrynbishop@vodamail.co.za

---------------------------
This file passed through:
       Absolute Tabs
   http://www.tabs.co.za
---------------------------