Guitar tablature for Sheep on drugs by Pyramid Tongue
#----------------------------------PLEASE NOTE---------------------------------#
#This file is the author's own work and represents their interpretation of the #
#song. You may only use this file for private study, scholarship, or research. #
#------------------------------------------------------------------------------##

This TAB transcription was created using TAB MASTER version 1.0
If you enjoy using this program, please consider telling the author
about it: Ofir Zwebner, e-mail: ofirz1@ccsg.tau.ac.il
                    snail-mail: Ehoud 10, Tel Aviv, 69936, Israel

This program is freeware, but it took me some work to make it, so
your financial contribution is welcome.

--------------------------------------------------------------------

Pyramid Tongue - Sheep on drugs

(Bass Intro)

Main Riff
e:------------|-------------|----------|
B:------------|-------------|----------|
G:------------|-------------|----------|
D:----------5-|-(Repeat-x3)-|-7-7-7-7-5|
A:------5h7---|-------------|----------|
E:-0000-------|-------------|----------|


Verse
e:-0-0-0-0-0-0-0-0-0-0-0-0-0-0-0-0-0-0|
B:-5-5-5-5-5-6-6-6-6-3-3-3-3-3-5-5-5-5|
G:------------------------------------|
D:------------------------------------|
A:------------------------------------|
E:------------------------------------|

Bridge                  Heavy part
                          Em  Bb        Gm F#m Em  Bb   Em    Gm F#m Fm
e:-----------|---------|-----------------------------------------------|
B:-----------|---------|-----------------------------------------------|
G:---5-------|---------|-----------------------------------------------|
D:-7---6-666-|Repeat-x4|--2-2-8\2--2-2--5--4---2-2-8\2--2-2---5--4--3--|
A:-----------|---------|--2-2-8\2--2-2--5--4---2-2-8\2--2-2---5--4--3--|
E:-----------|---------|------6---------3--2-------6----------3--2--1--|


---------------------------
This file passed through:
       Absolute Tabs
   http://www.tabs.co.za
---------------------------