Guitar tablature for Broken by Seether
#----------------------------------PLEASE NOTE---------------------------------#
#This file is the author's own work and represents their interpretation of the #
#song. You may only use this file for private study, scholarship, or research. #
#------------------------------------------------------------------------------#

Artist: Seether
Song  : Broken
Album : Disclaimer
Tabbed by: Daniel Parmenter (justfornow@ananzi.co.za)


INTRO

(Try pushing the balance on your equalizer (in Winamp or whatever) to either the left or right; guitar one is on the left channel and guitar two on the right. This makes it a lot easier to hear what each one is playing, and to get the strum pattern and so on. For guitar 1, play it loosely, emphasising high and low strings where appropriate. Not 100% on the Em / C bit for guitar 2 though it's very close, but the D part is right. Note that they're not lined up below!)


guitar 1

   Em            C                                      
E|--x-----0--0---x----0-----0--0---0--0-0-|            
B|--x-----0--0---x----1-----1--1---1--1-1-|            
G|--x-----0--0---x----0-----0--0---0--0-0-|  x3        
D|--2-----2--2---x----2-----2--2---2--2-2-|            
A|--2-----2--2---x----3-----3--3---3--3-3-|            
E|--0-----0--0---x----x-----x--x---x--x-x-|            


    Dsus
E|--0----0---0--0---0---0--0---0-0--|
B|--3----3---3--3---3---3--3---3-3--|
G|--2----2---2--2---2---2--2---2-2--|  x1   
D|--0----0---0--0---0---0--0---0-0--|
A|--x----x---x--x---x---x--x---x-x--|
E|--x----x---x--x---x---x--x---x-x--|



guitar 2

   Em            C                                                 
E|--2h3--------3--3--------3--------------|                   
B|-------0--------1------1----1-----------|                  
G|----------0---------0----------0-----0--|  x3                
D|----------------------------------0-----|           
A|----------------3-----------------------|                 
E|--0-------------------------------------|         


E|--0h2-------3p2-----0h2-----------3p2--------|  
B|------3----------3-------3-----3-------3-----|
G|---------2------------------2-------------2--|  x1
D|--0------------------------------------------|
A|---------------------------------------------|
E|---------------------------------------------|


VERSE
(just repeat the intro x2)


CHORUS

(Both guitars just strumming here, listen to the song to get the muting and strumming right, as I've just given a rough idea here. Playing the G note on the C chord, and the F note on the D chord, is optional; mute it if you like.)


guitars 1 & 2

    C           Em             D(sus)
E|--0-0-0-0--x--0-------0-0-0--2-2-2-2--|
B|--1-1-1-1--x--0--0----0-0-0--3-3-3-3--|
G|--0-0-0-0--x--0--0----0-0-0--2-2-2-2--|
D|--2-2-2-2--x-----2----2-2-2--0-0-0-0--|
A|--3-3-3-3--x-----2----2-2-2--x-x-x-x--|
E|--3-3-3-3--x-----0----0-0-0--x-x-x-x--|


VERSE
(same as 1st verse)


CHORUS
(same as 1st chorus)


SOLO

(The harmonics at the beginning of guitar 2 are played right at the end of the chorus: listen to the song! There is an overdubbed guitar here, so if you're just playing with two guitars I advise that guitar one plays the intro riff i.e. chords, and guitar two plays the solo. If you have a third guitar then you should add guitar 2's intro riff here. Otherwise I think this is pretty close!)


guitar 1

(plays intro)


guitar 2

       (rake)
E|----[12]--|
B|---[12]---|
G|--[12]----|   then
D|----------|
A|----------|
E|----------|

E|--------------------------------------------------------|
B|----------------------------------------5---------5-----|
G|------------------------------------4---------4---------|
D|---------0---2/5--4---4h5-4/2--2------------------------|
A|-----0-2------------------------------------------------|
E|-0-3----------------------------------------------------|

E|--------------------------------------------------------|
B|--------------------------------------------------------|
G|------------------------------------7--5--4-2-2/4-4-4-4-|
D|---------0---2/5--4---4h5-4h5-5/7-----------------------|
A|-----0-2------------------------------------------------|
E|-0-3----------------------------------------------------|

E|--------------------------------------------------------|
B|-----------------------------------------------5--------|
G|-------------------------------------------4------------|
D|---------0---2/5--4---4h5-4/2-2/7---5--2----------------|
A|-----0-2------------------------------------------------|
E|-0-3----------------------------------------------------|

E|--------------------------------------------------------|
B|--------------------------------------------------------|
G|------------------------------------7--5--4-2-2--4--4---|
D|---------0---2/5--4---4h5-4h5-5/7-----------------------|
A|-----0-2------------------------------------------------|
E|-0-3----------------------------------------------------|


CHORUS
(same as 1st chorus)


OUTRO

(This is right, cos you can hear exactly what's being played if you listen to each channel separately.)


guitar 1

(plays intro)


guitar 2

(all harmonics)

E|---12------------------------12------------------------|
B|-------12------------------------12-------7------------|
G|-------------------12-------------------------7--------|
D|---------------12---------------------------------7----|
A|-------------------------------------------------------|
E|-------------------------------------------------------|


ENDING

guitar 1

E|------0--|
B|------0--|
G|------0--|
D|------2--|
A|------2--|
E|--0---0--|


guitar 2

       (rake)
E|----[12]--|
B|---[12]---|
G|--[12]----|   
D|----------|
A|----------|
E|----------|


---------------------------
This file passed through:
       Absolute Tabs
   http://www.tabs.co.za
---------------------------