Guitar tablature for Maak gou by Klopjag
#----------------------------------PLEASE NOTE---------------------------------#
#This file is the author's own work and represents their interpretation of the #
#song. You may only use this file for private study, scholarship, or research. #
#------------------------------------------------------------------------------##


ARTIST:KLOPJAG
SONG:Maak gou
ALBUM:15de laan
Woorde en musiek:John-Henry Opperman
Tabbed by:Renier Henning
Comment:For best view turn on word wrap and maximize the window.

Intro:

|-----------------------------------------|
|---3---3-3-3/5-5--8---7----5-5-5-5/3-3-0-|
|----0------------------------------------|
|-----------------------------------------|
|-2-----2-2-2/3-3--7-7-5-5--3-3-3-3/2-2---|
|3--------------------------------------3-|

|-------------------------------------|
|---3---3-3-3/5--10-12-8-10-7-7-5-3-0-|
|----0--------------------------------|
|-------------------------------------|
|-2-----2-2-2/3--9--10-7-9--5-5-3-2---|
|3----------------------------------3-|

Verse:

|-----------------------------------------|
|---3---3-3-3/5-5--8---7----5-5-5-5/3-3-0-|
|----0------------------------------------|
|-----------------------------------------|
|-2-----2-2-2-3-3--7-7-5-5--3-3-3-3-2-2---|
|3--------------------------------------3-|
kou solank die potlood wat ek vir jou gepos het
stuur groete vir Karin Zoid as julle paaie dalk mag kruis
ek stuur vir jou �n draadblom@hotmail.com

gelukkig gaan die tyd gou vir jou verby
en gelukkiger vir my
lyk of ek hierdie keer dalk my sin gaan kry
|-------------------------------------|
|---3---3-3-3/5--10-12-8-10-7-7-5-3-0-|
|----0--------------------------------|
|-------------------------------------|
|-2-----2-2-2/3--9--10-7-9--5-5-3-2---|
|3----------------------------------3-|


weet, hierdie klopjag chords wat ek nou speel hier
hierdie E mineur, D, C en G gee ek vir jou

    e|------------------------3-|
    b|------------------------3-|
    G|------------------------0-|
    D|------------------------0-|
    A|-----2H3--3/5/3--3/2--0-2-|
    E|-2H3--------------------3-|
so maak                    maak gou

  G     C         Em        D           G           C          Em    D
|----------------------------------------------------------------------------|
|----15----15--------------15----15--------------15----15--------------------|
|-12----12----12--11-11-12----12----12--11-11-12----12----12---7-7-9-9-11-11-|
|----------------------------------------------------------------------------|
|----------------------------------------------------------------------------|
|----------------------------------------------------------------------------|

G    C       Em      D
Maak gou, ek wag vir jou
G    C       Em      D
Maak gou, ek wag vir jou
      G   C Em D
maak gou
      G   C Em D
maak gou

       G                  C                   Em            D
en ek vra wat nou en jy praat te gou, want jy s� alweer jy mis my meer
       G                  C                 Em                D
en ek weet dis swaar, dis amper klaar, dis koud by jou en ek mis jou nou
      G    C      Em       D          
  so maak gou, ek wag vir jou
     maak gou, ek wag vir jou
      G   C Em D
maak gou

|------------------------------------|
|------------------------------------|
|-11h12-11-7-16-14--11h12-11-7-16-14-|
|------------------------------------|
|------------------------------------|
|------------------------------------|
instrumental: G C Em D (x8)

  G                   C                 Em                D           
laat weet my watter trein, watter dag, watter stasie en peron
    G                          C                      Em                D
en sommer die naam van die kondukteur ook net vir in geval, net vir in geval  

|-----------------|
|-----------------|
|---7-7-9-9-11-11-|
|-----------------|
|-----------------|
|-----------------|

Solo:

  G        C   Em     D             G     C         Em         D
|--------------------------------|------------------------------------------|
|--------------------------------|------------------------------------------|
|-12-12-11-9-9-7h9-9-5h7-7-4h5-5-|-12-12-14-12-12--11-11-11h12-14-12-11-9-7-|
|--------------------------------|------------------------------------------|
|--------------------------------|------------------------------------------|
|--------------------------------|------------------------------------------|

  G         C     Em                    D            G                 C
|----------------------------------------------------15-15-15-------------------|
|----------------15-15-15p13-13-13-12-12h13-13h15-15----------13p12-12----------|
|-4h5-5h7-7/12~ -------------------------------------------------------14-12-12-|
|-------------------------------------------------------------------------------|
|-------------------------------------------------------------------------------|
|-------------------------------------------------------------------------------|

      Em         D
|-------------------------|
|-------------------------|
|-14-16-14-12-14-12-11-12-|
|-------------------------|
|-------------------------|
|-------------------------|

G    C       Em      D
Maak gou, ek wag vir jou
G    C       Em      D
Maak gou, ek wag vir jou
      G   C Em D
maak gou
      G   C Em D
maak gou

-------------------------------------------------------------------------------------------------
Mail me at mclarennar@mweb.co.za with comments or suggestions


---------------------------
This file passed through:
       Absolute Tabs
   http://www.tabs.co.za
---------------------------