Guitar tablature for Buitekant by Theuns Jordaan (tabbed by Ruan)
#----------------------------------PLEASE NOTE-----------------------------#
#This file is the author's own work and represents their interpretation of the #
#song. You may only use this file for private study, scholarship, or research. #
#-------------------------------------------------------------------------##

__________________________
    G     C     D     A
e|--3--|--0--|--2--|--0--|
B|--3--|--1--|--3--|--2--|
G|--0--|--0--|--2--|--2--|
D|--0--|--2--|--0--|--2--|
A|--2--|--3--|--0--|--0--|
E|--3--|--0--|--x--|--0--|
__________________________

---------------------------
This file passed through:
       Absolute Tabs
   http://www.tabs.co.za
---------------------------