Guitar tablature for Die Engel By My by Nicholis Louw (tabbed by kunuk)
#----------------------------------PLEASE NOTE---------------------------------#
#This file is the author's own work and represents their interpretation of the #
#song. You may only use this file for private study, scholarship, or research. #
#------------------------------------------------------------------------------##

Die Engel By My - Nicholis Louw
Album:  Vergeet en Vergewe



This song can be as complicated as you want it to be. I have included
several options for both the intro, verse and outro sections.  If you
are new to sus2 chords, I recommend practicing switching between the
standard and the sus2 versions before playing the song. This way you
can get a feel for how to play them, and how they will sound when you
do add them in. They add flavour to every song – especially ballads.

Here are the chords used in the song for quick reference:
         A      Asus2    D      Dsus2    G     Gsus2       
e:-------0-------0-------2-------0-------3-------3-------
B:-------2-------0-------3-------3-------3-------3-------
G:-------2-------2-------2-------2-------0-------2-------
D:-------2-------2-------0-------0-------0-------0-------
A:-------0-------0-----------------------2-------0-------
E:-------0-------0-----------------------3-------3-------

Have fun! Please let me know if there any changes/suggestions you have
to make the tab better,
Your Friendly Neighbourhood Kunuk – kunuk@rocketmail.com

======================================================================

INTRO:
-GUITAR #1
e:-5~~~~~~~~~-|-7~~~~~~~~~-|-5~~~~~~~~~~|~~~~~~~~~~~~-|
B:------------|------------|------------|-------------|
G:------------|------------|------------|-------------|
D:------------|------------|------------|-------------|
A:------------|------------|------------|-------------|
E:------------|------------|------------|-------------|


-GUITAR #2
-This guitar pattern repeats over the verses and can be played instead
of the chords
e:-------------------------------------------------------|
B:-------------------------------------------------------|
G:-------------------------------------------------------|
D:-12-12-11-12---12-12-11-12---12-12-11-12---12-12-11-12-|
A:-------------------------------------------------------|
E:-------------------------------------------------------|

e:-------------------------------------------------------|
B:-------------------------------------------------------|
G:----------14-------------------------------------------|
D:-12-12-11------12-12-11-9----12-12-11-12---12-12-11-12-|
A:-------------------------------------------------------|
E:-------------------------------------------------------|


VERS:
--If you choose to play the chords, you have the option of playing the
standard chords mixed with the sus2 chords. This will give the chord
version a similar feel to the notes above. You will need to really
listen to the song to make it work

D
Gee my net nog ‘n kans
D
Gee my net nog ‘n uur net een minuut
          G             A               D
Even een sekonde om te sê wat ek lankal moes
  
D
Ek het my kans verspeel
D
Ek het my uur verdeel my minuut gemis
          G             A               D
My een sekonde om te sê wat ek lankal moes


KOOR:
        G                A                   D
Ek sal alles gee vir ‘n kans om weer in jou oë te kyk
       G               A                   D
En by jou te sit saam met jou te bid soos ons altyd het
G                      D
Ek was te laat om met jou te praat
                 G                  A                  D     
En die dinge te sê wat ek nou moet sê vir die engel by my
                 G                  A                  D     
En die dinge te sê wat ek nou moet sê vir die engel by my


VERS:
--As with the first verse, you have the option of playing the chords
or the Guitar #2 part from the intro

D
Gee my net nog ‘n kans
D
Net nog ‘n uur net een minuut
          G             A               D
Even een sekonde om te sê wat ek lankal moes

D
Ek het my kans verspeel
D
My uur verdeel my minuut gemis
          G             A               D
My een sekonde om te sê wat ek lankal moes


KOOR:
        G                A                   D
Ek sal alles gee vir ‘n kans om weer in jou oë te kyk
       G               A                   D
En by jou te sit saam met jou te bid soos ons altyd het
G                      D
Ek was te laat om met jou te praat
                 G                  A                  D     
En die dinge te sê wat ek nou moet sê vir die engel by my
                 G                  A                  D     
En die dinge te sê wat ek nou moet sê vir die engel by my


GUITAR SOLO:
e:--------------------------------------------------|
B:--------------------------------------------------|
G:--------------------------------------------14~~~-|
D:-11-12-12~~~--11-12-12~~~-11-12-10~~~-11-12-------|
A:--------------------------------------------------|
E:--------------------------------------------------|

e:-------------------------------------10-10~~~~~~~-|
B:--------------------------12-10~~-12--------------|
G:-12-11-12-11-------11-9~~-------------------------|
D:-------------12~~~--------------------------------|
A:--------------------------------------------------|
E:--------------------------------------------------|


KOOR:
        G                A                   D
Ek sal alles gee vir ‘n kans om weer in jou oë te kyk
       G               A                   D
En by jou te sit saam met jou te bid soos ons altyd het
G                      D
Ek was te laat om met jou te praat
                 G                  A                  D     
En die dinge te sê wat ek nou moet sê vir die engel by my
                 G                  A                  D     
En die dinge te sê wat ek nou moet sê vir die engel by my


OUTRO:
-GUITAR #1
e:-5~~~~~~~~~-|-7~~~~~~~~~-|-5~~~~~~~~~~|~~~~~~~~~~~~-|
B:------------|------------|------------|-------------|
G:------------|------------|------------|-------------|
D:------------|------------|------------|-------------|
A:------------|------------|------------|-------------|
E:------------|------------|------------|-------------|


-GUITAR #2
e:-------------------------------------------------------|
B:-------------------------------------------------------|
G:-------------------------------------------------------|
D:-12-12-11-12---12-12-11-12---12-12-11-12---12-12-11-12-|
A:-------------------------------------------------------|
E:-------------------------------------------------------|

e:-------------------------------------------------------||
B:-------------------------------------------------------||
G:----------14-------------------------------------------||
D:-12-12-11------12-12-11-9----12-12-11-12---12-12-11-12-||
A:-------------------------------------------------------||
E:-------------------------------------------------------||

======================================================================
Here is an English translation for all of those people out there like
myself, who dig the music, but are new to the language:
======================================================================

Just give me another chance
Just give me one hour, one minute
Even one second to say what I have held inside

I have lost my chance
I have divided my hours into missed minutes
Even one second to say what I have held inside

CHORUS:
I would give everything for a chance to look into your eyes again
And to sit down with you to pray as we always had before
I am too late to talk with you
And to say the things I now must now tell the angel by me
And to say the things I now must now tell the angel by me

Just give me another chance
Just give me one hour, one minute
Even one second to say what I have held inside

I have lost my chance
I have divided my hours into missed minutes
Even one second to say what I have held inside

CHORUS: (2X)
I would give everything for a chance to look into your eyes again
And to sit down with you to pray as we always had before
I am too late to talk with you
And to say the things I now must now tell the angel by me
And to say the things I now must now tell the angel by me

======================================================================

---------------------------
This file passed through:
       Absolute Tabs
   http://www.tabs.co.za
---------------------------