Bass tablature for Millionaire by The Cheap Bad Habits (tabbed by Jed)
#----------------------------------PLEASE NOTE---------------------------------#
#This file is the author's own work and represents their interpretation of the #
#song. You may only use this file for private study, scholarship, or research. #
#------------------------------------------------------------------------------##

MILLIONAIRE


G-----------------------------------------------------------------------------------------
D-----------------------------------------------------------------------------------------
A-----------------------------------------------------------------------------------------
E--0-0-0-5-5-5-5--5-5-5--7-7-7-7--7-7-7--10-10-9-9-7-7-6-6-5-5--3—0-----------------------

G-----------------------------------------------------------------------------------------
D-----------------------------------------------------------------------------------------
A-----------------------------------------------------------------------------------------
E--0-5-3-0--0-0--0-0----0-5-3-0--0-0--0-0-------------------------------------------------

VERSE
G----------------------------------------------------------------------------------------------
D----------------------------------------------------------------------------------------------
A----------------------------------------------------------------------------------------------
E--0-5-3-0--0-0--0-0----0-5-3-0--0-0--0-0----0-5-3-0--0-0--0-0----0-5-3-0--0-0--0-0—

G----------------------------------------------------------------------------------------------
D----------------------------------------------------------------------------------------------
A--0-5-3-0--0-0--0-0----0-5-3-0--0-0--0-0------------------------------------------------------
E------------------------------------------5-3-0--0-0--0-0----0-5-3-0--0-0--0-0----------------

CHORUS
G----------------------------------------------------------------------------------------------
D----------------------------------------------------------------------------------------------
A----------------------------------------------------------------------------------------------
E--0-0-0-5-5-5-5--5-5-5--7-7-7-7--7-7-7--10-10-9-9-7-7-6-6-5-5--3—0----------------------------

BRIDGE
G----------------------------------------------------------------------------------------------
D----------------------------------------------------------------------------------------------
A-------------------------------------------------0-5-3-0----0-5-3-0---------------------------
E--0-5-3-0----0-5-3-0----0-5-3-0----0-5-3-0--------------------------------0-5-3-0----0-5-3-0--

END
G----------------------------------------------------------------------------------------------
D----------------------------------------------------------------------------------------------
A----------------------------------------------------------------------------------------------
E--0-0-0-5-5-5-5--5-5-5--7-7-7-7--7-7-7--5-5-5-5-----------------------------------------------

G----------------------------------------------------------------------------------------------
D----------------------------------------------------------------------------------------------
A----------------------------------------------------------------------------------------------
E--5-5-5--7-7-7-7--7-7-7--5-5-5-5--5-5-5--7-7-7-7--7-7-7---------------------------------------

G----------------------------------------------------------------------------------------------
D----------------------------------------------------------------------------------------------
A----------------------------------------------------------------------------------------------
E--10-10-9-9-7-7-6-6-5-5--3—0------------------------------------------------------------------



SONG STRUCTURE
• INTR0
• VERSE
• CHORUS
• VERSE
• CHORUS
• VERSE (SOLO)
• CHORUS (SOLO)
• MAIN RIFF E X4
• VERSE
• CHORUS
• END



LYRICS

It’s cold tonight, but I got this fire
Let me tell you a story, you might call me liar
I try to forget, but still get sad
When I think about all those good-lookin’ women I had

But that was back when I was…
A millionaire

Now I got to scrounge to buy me some bread
I hustle for change to get myself fed
But I shouldn’t moan, I shouldn’t complain
Even though there was a time when I used to drink champagne

But that was back when I was…
A millionaire

Brown paper bag
Railroad gin
Mix with my tears
Slide down my chin

I used to be hot, I used to be cool
When I got too hot – indoor swimming pool

But that was back when I cared
Back when I still had my hair
Oh God it just isn’t fair!
A millionaire!

---------------------------
This file passed through:
       Absolute Tabs
   http://www.tabs.co.za
---------------------------