Guitar tablature for More Than Life by Lithium
#----------------------------------PLEASE NOTE---------------------------------#
#This file is the author's own work and represents their interpretation of the #
#song. You may only use this file for private study, scholarship, or research. #
#------------------------------------------------------------------------------##

Lithium - More Than Life
ALbum - Broken
Tabbed By : Shaun Pretorius

========================================
Verse:
E-------------------------------------
B-------------------------------------
G---------------------0-|-----0------0
D-----5--------0----4---|---2------0--
A---2--------4----5-----|-3------2----
E-0------0s5------------|-------------
                            Pick fast
========================================
CHORUS PART:

Wake me...wake me
E---------------
B---------------
G----7-9-7-10-12
D----7-9-7-10-12
A----5-7-5--8-10
E-0-0-----------

LORD WHEN I DIE..

WAKE ME WHEN I DIE
E--------------------
B--------------------
G--------------------
D-2--3--2--3--2--2--5
A-2--3--2--3--2--2--5
E-0--1--0--1--0--0--3
{you can change the amount of strums
as it suits you - listen to the song
for timing though}
========================================
BRIDGE:

So bad, that I want you
E------------------------
B----------8h10-10-8h10p8
G-5~-7~-9~---------------
D-5~-7~-9~---------------
A-3~-5~-7~---------------
E------------------------

So bad that I need you...
E-----------
B-----------
G-5~-7~-9~--
D-5~-7~-9~-7
A-3~-5~-7~-7
E----------5

NEED YOU MORE THAN LIFE
E-----------------------
B-------------------0--0
G-7--7--5--4--0--0--2--2
D-7--7--5--4--2--2--2--2
A-5--5--3--2--2--2--0--0
E-------------0--0------
=========================================


---------------------------
This file passed through:
       Absolute Tabs
   http://www.tabs.co.za
---------------------------