Guitar tablature for Stiltes by Klopjag
#----------------------------------PLEASE NOTE---------------------------------#
#This file is the author's own work and represents their interpretation of the #
#song. You may only use this file for private study, scholarship, or research. #
#------------------------------------------------------------------------------##


Artist:     Klopjag
Song:       Stiltes
Album:      15de Laan
Getab deur: Willem Prins

Hi alweer, hier�s die hele song. Ek�s nie 100% seker oor die solo nie. Laat weet maar as ek iewers �n fout gemaak het.
My e-mail addres is swjprins@yahoo.com. Enjoy.

Intro:

e -----------------------------------------------------------------------------------------------------------------
B -----------------------------------------------------------------------------------------------------------------
G ------------------------------------------------------------------------------------------3---3h5-----0----------
D ----------3---3----5--5----5--5---5p3--0-----------------------------3---3---3h5---------------------------------
A ---3---3---------------------------------------------------------3---3-------------------------------------------
E -----------------------------------------------------------------------------------------------------------------

Verse:
C                            F                  G
     Somtyds is daar stiltes tussen woorde en akoorde�1
C       F                      G
    En somtyds is daar nie
C                               F                        G
    Somtyds is daar �n boodskap op my foon�2
C           F                     G
    Maar meestal is daar nie
C                           F                  G
    Somtyds is daar stiltes tussen jou en my�3
C                    F                 G
    En meestal maak dit my bang

Koor:
         F          G     C
Want die tyd gaan verby
           F                     G                   C
En die stiltes word al harder tussen ons
               F                     G                C          F
Maar die lewe gaan nog voort so op een sad akkoord
           F                 G                       C
En die tyd wat ons inhaal maak my bang
           F                 G                    C
En die ure wat ons mis bly by my hang

Verse:
Is dit die woorde of die wysie wat jou laat verder luister�4
Of is jy net lus om iets te hoor.
Hardloop my horlosie vinniger as joune�5
Of gaan tyd net so gou verby
Dalk is dit my internetkonneksie�6
Dat ek niks meer e-mails van jou kry

Koor x2
Net om die song bietjie meer volledig te maak speel by die nommers hierbo die volgende:

1� �woorde en akkoorde�
       speel niks (moerse obvious)

2� �boodskap op my foon�
e -----------------------------------------------------------------------------------------------------------------
B --------8-8---8-8------------------------------------------------------------------------------------------------
G -----------------------------------------------------------------------------------------------------------------
D -----------------------------------------------------------------------------------------------------------------
A -----------------------------------------------------------------------------------------------------------------
E -----------------------------------------------------------------------------------------------------------------


3� �jou en my�
e -----------------------------------------------------------------------------------------------------------------
B -----------------------------------------------------------------------------------------------------------------
G -----------------------------------------------------------------------------------------------------------------
D -----------------------------------------------------------------------------------------------------------------
A -----------------------------------------------------------------------------------------------------------------
E -------10/1------------------------------------------------------------------------------------------------------

4� �verder luister�
e -----------------------------------------------------------------------------------------------------------------
B -----------------------------------------------------------------------------------------------------------------
G -----------------------------------------------------------------------------------------------------------------
D -----------------------------------------------------------------------------------------------------------------
A -----0p3-3p5-5/7--5--3-------------------------------------------------------------------------------------------
E -----------------------------------------------------------------------------------------------------------------

5� �vinniger as joune�
(obvious)

6� �internetkonneksie�
(maak iets op)


Solo:
(compliments van my broer)
e -----------------------------------------------------------------------------------------------------------------
B ---13--13---------------------------------------------------------13--13--------------------------------13-------
G ---12--12---12/10/9h10-12p10--9--5----0-0h5--7--5------12--12------12/10/9h10---12h14------12-12-----------------
D -----------------------------------------------------------------------------------------------------------------
A -----------------------------------------------------------------------------------------------------------------
E -----------------------------------------------------------------------------------------------------------------


En daar is hy.  Vir die wat sukkel om die solo te lees as gevolg van die een lyn wat in die ander inloop.
Copy die tab in wordpad of notepad in en stel jou �word wrapping� by �View-Options� of �Edit- Word wrap�.
Tot �n ander dag
Cheers.

---------------------------
This file passed through:
       Absolute Tabs
   http://www.tabs.co.za
---------------------------