Guitar tablature for Birthday card by Tweak
Band: Tweak
Song: BirthdayCard
Album: The romantic lure of possum worship
tabbed by: johan swanepoel
Intro /= slide

"Yeah yeah��"-
e|-------------------------------------------------------------|
B|-------------------------------------------------------------|
G|--------x--9-/--10---------------5---4-----------------------| X 2
D|---7----x---9-/-10------7---5----5---4-----------------------|
A|---7----x---7-/--8------7---5----3---2-----------------------|
E|---5--------------------5---3--------------------------------|


Palm mute( )
e|-------------------------------------------------------------|
B|-------------------------------------------------------------|
G|-------------------------------------------------------------|
D|--(3-3-3-3-3-3-3-3)---(5-5-5-5-5-5-5-5)--5-------------------|
A|--(3-3-3-3-3-3-3-3)---(5-5-5-5-5-5-5-5)--5-------------------|
E|--(1-1-1-1-1-1-1-1)---(3-3-3-3-3-3-3-3)--3-------------------|


verse
e|-------------------------------------------------------------|
B|-------------------------------------------------------------|
G|---5-5------------------------------------5-5----------------|
D|---5-5---7-7---5-5---xxxx---5---7---5-5---7-7---5-5----------|
A|---3-3---7-7---5-5---xxxx---5---7---3-3---7-7---5-5----------|
E|---------5-5---3-3---xxxx---3---5---------5-5---3-3----------|


E|-------------------------------------------------------------|
b|-------------------------------------------------------------|
g|-----------------5---xxxxxx--5-5-----------------------------|
d|---3------5------5---xxxxxx--5-5---3--5---5-5-5-5-5----------|
a|---3------5------3---xxxxxx--3-3---3--5---5-5-5- 5-5---------|
e|---1------3------------------------1--3---3-3-3-3-3----------|


Palm mute( ) "..you don�t care, you never did�"
e|-------------------------------------------------------------|
B|-------------------------------------------------------------|
G|-------------------------------------------------------------|
D|--(3-3-3-3-3-3-3-3)---(5-5-5-5-5-5-5-5)----------------------|
A|--(3-3-3-3-3-3-3-3)---(5-5-5-5-5-5-5-5)----------------------|
E|--(1-1-1-1-1-1-1-1)---(3-3-3-3-3-3-3-3)----------------------|


" ..i wana say thank you."
e|-------------------------------------------------------------|
B|-------------------------------------------------------------|
G|-----------9-/--10--------------------5----4-----------------|
D|---7-------9-/--10--------5--5--------5----4-----------------|
A|---7-------7-/--8---------5--5--------3----2-----------------|
E|---5----------------------3--3-------------------------------|


the solo thingy�-
e|-------------------------------------------------------------|
B|-------------------------------------------------------------|
G|--5-5---7-7-7---9-9-9----10-----9----7-------5-5-------------|
D|--x-x---x-x-x---x-x-x-----x-----x----x-------x-x-------------|
A|--3-3---5-5-5---7-7-7-----8-----7----5-------3-3-------------|
E|--- ---------------------------------------------------------|

That�s all the basic riffs!
Hope I helped you in some way.
.Njoy it and keep supporting SA bands!