Guitar tablature for Ons Soek Net Country by Ray Dylan en Elizma Theron (tabbed by kunuk)
#----------------------------------PLEASE NOTE---------------------------------#
#This file is the author's own work and represents their interpretation of the #
#song. You may only use this file for private study, scholarship, or research. #
#------------------------------------------------------------------------------##

Ons Soek Net Country - Ray Dylan met Elizma Theron
Album:  Breek Die Ys



This song is a lot of fun to play. There are only three chords, so you
can focus on the strumming and the guitar riffs throughout the song. I
tabbed this so that the chords match up with the singing, especially
the ‘aha aa’ parts. Just listen to the song, and you should be ok.

Here are the chords used in the song for quick reference:
         A       B       E           
e:-------0-------2-------0-------
B:-------2-------4-------0-------
G:-------2-------4-------1-------
D:-------2-------4-------2-------
A:-------0-------2-------2-------
E:-------0---------------0-------

Have fun! Please let me know if there any changes/suggestions you have
to make the tab better,
Your Friendly Neighbourhood Kunuk – kunuk@rocketmail.com

======================================================================

INTRO:
e:-0-------------4-2-|-0------------2h3p2h3-0-|
B:-------4-4-4-2-----|--------4-4-4-----------|
G:--2~~~-------------|---2~~~-----------------|
D:-------------------|------------------------|
A:-------------------|------------------------|
E:-------------------|------------------------|

E                              A    E
Daai Jean is so tight aan jou sexy lyf
E                A         E
Hallo cowboy jy werk daai kuif
A                     A   A
Staan bietjie nader, aha aa
A                 A   A
Wil jy vergader, aha aa

E                 A           E
Wikkel jou lyfie kom maak 'n draai
E                      A       E
Wat is my naam sal jy dit kan raai
A                      A   A
Ek lees jou gedagtes, aha aa
A                 A   A
Wat se gedagtes, aha aa


B
Ek’s bly om te sien
B
Ek’s bly om te hoor
B
Daar’s mense soos ek en jy


KOOR:
    E
Wat sing vir country
    A
Wat dans op country
    E
Wat leef vir country
              B
Ons soek net country

e:---------------------------|
B:---------------------------|
G:---------------------------|
D:---------------------------|
A:-7-6-7—5s7~~-7-7-7-7-7-7-7-|
E:---------------------------|

     E
Wat sing vir country
     A
Wat dans op country
     E
Wat leef vir country
                      B
Aha aa, ons soek net country

e:---------------------------|
B:---------------------------|
G:---------------------------|
D:---------------------------|
A:-2-7-7~~-7-7-5-4-3-7-2-4-7-|
E:---------------------------|


e:-0-------------4-2-|-0-----------2h3p2h3-0-|
B:-------4-4-4-2-----|-------4-4-4-----------|
G:---2~~-------------|---2~~-----------------|
D:-------------------|-----------------------|
A:-------------------|-----------------------|
E:-------------------|-----------------------|

E                      A      E
Jy lyk so sweet jy is lekker verby
E              A       E
Wil jy cowboy dans met my
A                      A   A
Bring die verligting, aha aa
A                    A   A
Ek gee die rigting, aha aa

E                A        E
Dans met my die hele aand verby
E                     A            E
Kan jy by my hou wys jou moves vir my
A                        A   A
Will you be my cowgirl, aha aa
A                        A   A
If you'll be my cowboy, aha aa


B
Ek’s bly om te sien
B
Ek’s bly om te hoor
B                                           
Daar’s mense soos ek en jy


KOOR:
     E
Wat sing vir country
     A
Wat dans op country
     E
Wat leef vir country
              B
Ons soek net country

e:---------------------------|
B:---------------------------|
G:---------------------------|
D:---------------------------|
A:-7-6-7—5s7~~-7-7-7-7-7-7-7-|
E:---------------------------|

     E
Wat sing vir country
     A
Wat dans op country
     E
Wat leef vir country
                      B
Aha aa, ons soek net country

e:---------------------------|
B:---------------------------|
G:---------------------------|
D:---------------------------|
A:-2-7-7~~-7-7-5-4-3-7-2-4-7-|
E:---------------------------|

RAY SE RAP:
Jy dink jy’s beter as ‘n cowboy
Jy dink jy’s beter as ek
Maar langs my dans ‘n cowgirl
Sy maak die manne gek

ELIZMA SE RAP:
’n Man met ’n perd wat die lande werk
Maak die girls se knieë lam
So bring jou tou maar maak net gou
Kyk of jy my kan vang


KOOR: (X2)
     E
Ons sing vir country
     A
Ons dans op country
     E
Ons leef vir country
              B
Ons soek net country

e:---------------------------|
B:---------------------------|
G:---------------------------|
D:---------------------------|
A:-7-6-7—5s7~~-7-7-7-7-7-7-7-|
E:---------------------------|

     E
Ons sing vir country
     A
Ons dans op country
     E
Ons leef vir country
                      B        E...E...
Aha aa, ons soek net country

======================================================================
Here is an English translation for all of those people out there like
myself, who dig the music, but are new to the language:
======================================================================

Your jeans are so tight against your sexy body
Hello cowboy, nonsense you work naked
Stand slightly closer
Would you like to meet

Wind your body, come make a turn
What is my name, you can guess
I read your thoughts
What thoughts

I'm glad to see
I'm glad to hear
It's people like you and me

CHORUS: (2X)
What singing for country
What dancing to country
What life for country
We only search for country

You seem so sweet, you are beyond nice
Would you dance with me cowboy
Bring the light
I give the direction

I'm glad to see
I'm glad to hear
It's people like you and me

CHORUS: (2X)
What singing for country
What dancing to country
What life for country
We only search for country

Dance with me for the whole evening
Can you keep me, show me your moves
Will you be my cowgirl
If you'll be my cowboy

RAY’S RAP :
You think you're better than a cowboy
You think you're better than me
But besides me dances a cowgirl
She makes the men crazy

ELIZMA’S RAP:
A man with a horse that works the land
Makes a girls' knees go limp
So bring your rope, but make it quick
See if you can catch me

CHORUS: (2X)
We sing for country
We dance to country
We live for country
We only search for country

======================================================================

---------------------------
This file passed through:
       Absolute Tabs
   http://www.tabs.co.za
---------------------------