Guitar tablature for Hier Binne (Klop ‘n Boerehart) by Ray Dylan (tabbed by kunuk)
#----------------------------------PLEASE NOTE---------------------------------#
#This file is the author's own work and represents their interpretation of the #
#song. You may only use this file for private study, scholarship, or research. #
#------------------------------------------------------------------------------##

Hier Binne (Klop ‘n Boerehart) - Ray Dylan
Album:  Hier Binne (Klop ‘n Boerehart)



This song is a lot of fun to play, and easy too. With only four simple
chords that repeat the same pattern throughout the song, it is a great
song for a beginner looking to jam. This tab also has some guitar
riffs and two solos, for those looking for something a little more
challenging.

Here are the chords used in the song for quick reference:
         A       D       Em      G       
e:-------5-------2-------0-------3-------
B:-------5-------3-------0-------0-------
G:-------6-------2-------0-------0-------
D:-------7-------0-------2-------0-------
A:-------7---------------2-------2-------
E:-------5---------------0-------3-------

Have fun! Please let me know if there any changes/suggestions you have
to make the tab better,
Your Friendly Neighbourhood Kunuk – kunuk@rocketmail.com

======================================================================

INTRO:
e:---------------------|
B:-2~~~-0~~~---0-0-2~~-|
G:-----------1---------|
D:---------------------|
A:---------------------|
E:---------------------|

D                      G
Ek soek na my boere bekkie
           A                   D
Om hierdie boerseun se hart te vat


D
Al het ek nie ‘n plaas nie
      G          D
Ek ry darem ‘n BMW
        G             D
Want my pa was mos te arm
Em                    A
Om ‘n plaas vir my te gee


D
Nou bly ek op die dorp
      G                   D
En ek vry maar ‘n bietjie rond
        G                D
Want ek kan nie meer wag nie
A                 D
Om ‘n goeie pa te word


KOOR:
          D
Want hier binne hier binne
     G                   D
Hier binne klop ‘n boere hart
   G                   D
Ek soek na ‘n boere bekkie
           Em                  A
Om hierdie boerseun se hart te vat
          D
Want hier binne hier binne
     G                   D
Hier binne klop ‘n boere hart
      G                   D
Ja ek soek na my boere bekkie
           A                   D
Om hierdie boerseun se hart te vat


e:----------------------------|
B:----------------------------|
G:-11~~-12-11-9-11-7-9-6-7~~~-|
D:----------------------------|
A:----------------------------|
E:----------------------------|


D
Daar was mos ‘n Engelse Antie
       G                      D
Sy wou hê ek moet haar dogter trou
   G               D
Excuse for me my Antie
    Em                 A
I’m looking for a boerevrou

D
Nou sit ek in die kroeg op Verlange
      G                        D
En ek wonder waar ek haar gaan kry
        G            D
Daai bakgat boere bekkie
       A               D
Wat in my eie taal kan vry


KOOR:
          D
Want hier binne hier binne
     G                   D
Hier binne klop ‘n boere hart
   G                   D
Ek soek na ‘n boere bekkie
           Em                  A
Om hierdie boerseun se hart te vat
          D
Want hier binne hier binne
     G                   D
Hier binne klop ‘n boere hart
      G                   D
Ja ek soek na my boere bekkie
           A                   D
Om hierdie boerseun se hart te vat


TREKKLAVIER SOLO:
e:-------------------------------------------------------------|
B:-----------------------------8---8-8-7-5-----7---7-----------|
G:------------------7-5--5-5-7---------------7---7---7---------|
D:-4---5-6-7--7-7-7--------------------------------------------|
A:-------------------------------------------------------------|
E:-------------------------------------------------------------|

e:-------------------------------------------------------------|
B:---8---8--------7---7--------8---8------10~~~~~~-------------|
G:-9---9---9----7---7---7----9---9---9-------------------------|
D:-------------------------------------------------------------|
A:-------------------------------------------------------------|
E:-------------------------------------------------------------|


GUITAR SOLO:
e:-----------7--------------10-10-10-10-9-7--------------------|
B:-10-----7-8---10----10-7-------------------10-10p8-7-7-------|
G:-------------------------7-----------------------------------|
D:-------------------------------------------------------------|
A:-------------------------------------------------------------|
E:-------------------------------------------------------------|

e:-10-10-10-10-9-7---------------------------------------------|
B:------------------10-10p8-7-7--------------------------------|
G:-----------------------------------7-9-7---------------------|
D:-----------------------------------------7-7-7-9-------------|
A:-------------------------------------------------9-7---------|
E:-----------------------------------------------------10-9-10-|


D
Nou droom ek van my Bekkie
       G             D
Wat in Afrikaans kan soen
       G                             D
Met ‘n mooiste toppie en die kortste rokkie
      A              D
Wat alles vir my kan doen


KOOR:
          D
Want hier binne hier binne
     G                   D
Hier binne klop ‘n boere hart
   G                   D
Ek soek na ‘n boere bekkie
           Em                  A
Om hierdie boerseun se hart te vat
          D
Want hier binne hier binne
     G                   D
Hier binne klop ‘n boere hart
      G                   D
Ja ek soek na my boere bekkie
           A                   D
Om hierdie boerseun se hart te vat


      G                   D
Ja ek soek na my boere bekkie
           A                   D
Om hierdie boerseun se hart te vat


OUTRO:
e:------------------------|
B:-7-5---5----------------|
G:-----7---7-4-7-7~~~~~~~-|
D:------------------------|
A:------------------------|
E:------------------------|

======================================================================
Here is an English translation for all of those people out there like
myself, who dig the music, but are new to the language:
======================================================================

Yes I am looking for my Boer’s lady
To take this Boer son's heart

Though I am not a farm
All the same, I drive a BMW
Because my father was too poor indeed
To make a place for me

Now I remain in the town
And I released a little round
Because I cannot wait
To become a good dad

CHORUS:
Here, wrapped inside
Here inside beats a Boer’s heart
I am looking for a Boer’s lady
To take this Boer son's heart
Here, wrapped inside
Beats a Boer’s heart
Yes I am looking for my Boer’s lady
To take this Boer son's heart

There was moss an English Auntie
She wanted me to marry her daughter
Excuse me Auntie
I'm looking for a Boer woman

Now I am sitting in the pub yearning
And I wonder where I will find her
That first class Boer’s lady
What in my own language freely

CHORUS:
Here, wrapped inside
Here inside beats a Boer’s heart
I am looking for a Boer’s lady
To take this Boer son's heart
Here, wrapped inside
Beats a Boer’s heart
Yes I am looking for my Boer’s lady
To take this Boer son's heart

Now I dream of my lady
What can kiss in Afrikaans
With a beautiful top and the shortest dress
With everything I can do

CHORUS:
Here, wrapped inside
Here inside beats a Boer’s heart
I am looking for a Boer’s lady
To take this Boer son's heart
Here, wrapped inside
Beats a Boer’s heart
Yes I am looking for my Boer’s lady
To take this Boer son's heart

Yes I am looking for my Boer’s lady
To take this Boer son's heart

======================================================================

---------------------------
This file passed through:
       Absolute Tabs
   http://www.tabs.co.za
---------------------------