Guitar tablature for Pete's Chariot by Lithium
#----------------------------------PLEASE NOTE---------------------------------#
#This file is the author's own work and represents their interpretation of the #
#song. You may only use this file for private study, scholarship, or research. #
#------------------------------------------------------------------------------##

Lithium - Pete's Chariot
Album : Zennon Supertroopers
Tabbed by : Shaun Pretorius

Intro:
E-------------------------------
B-------------------------------
G-------------------7--5--4--4/5
D-2--3--5--3--2--3--7--5--4--4/5
A-2--3--5--3--2--3--5--3--2--2/3
E-0--1--3--1--0--1--------------

(don't know the verse riff)

Chorus:
"you've got BIG"
E------------------------
B------------------------
G------------------------
D-2-2--5-5--3-3--2-2--x-x
A-2-2--5-5--3-3--2-2--x-x
E-0-0--3-3--1-1--0-0--x-x


---------------------------
This file passed through:
       Absolute Tabs
   http://www.tabs.co.za
---------------------------