Guitar tablature for Poem (bonus track) by Downfall (tabbed by Nevay)
#----------------------------------PLEASE NOTE---------------------------------#
#This file is the author's own work and represents their interpretation of the #
#song. You may only use this file for private study, scholarship, or research. #
#------------------------------------------------------------------------------##

Standard E Tuning (Drop D)

INTRO (gt1 clean)
4|-----8-7-------------|   |-0-|
5|---5-------8-6-6h8p6-|   |-0-|
6|-5-------5-----------|x18|-0-|
         
PRE-VERSE (gt1+2 dist)
4|-8p7---7-7--7h8-------------3--3-----------0---1-|
5|-5-----5-5--5-----5h6-6p5---3--3h5-5-5p3---0---1-|
6|-5-----5-5--5-----5---------3--3-----------0---1-|

2|-------------------------------------------3-------------------|
3|-------------------------------------------2---2-2 (let ring) -|
4|-8p7---7-7--7h8-------------3--3-----------0---1-3 (let ring) -|
5|-5-----5-5--5-----5h6-6p5---3--3h5-5-5p3---0---1---------------|
6|-5-----5-5--5-----5---------3--3-----------0---1---------------|

VERSE (gt1 clean)
4|-----8-7-------------|   |-0-|
5|---5-------8-6-6h8p6-|   |-0-|
6|-5-------5-----------|x24|-0-|

(gt2 clean / strum)
4|-5-|
5|-5-|
6|-5-|

CHORUS (gt1+2 dist)
3|-----7-------3-------7-------3----|
4|-5---7-5-1---3-1-5---7-5-1---3-3--|
5|-5---5-5-1---1-1-5---5-5-1---1-3--|
6|-5---5-5-1---1-1-5---5-5-1---1-3--|

3|-----7-------3-------7-------3-2-|
4|-5---7-5-1---3-1-5---7-5-1---3-3-|
5|-5---5-5-1---1-1-5---5-5-1---1-1-|
6|-5---5-5-1---1-1-5---5-5-1---1-1-|

PRE-VERSE (gt1+2 dist)
2|------------------------------------------3------------------|
3|------------------------------------------2---2-2 (let ring)-|
4|-8p7---7-7--7h8-------------3--3-3-3--3---0---1-3 (let ring)-|
5|-5-----5-5--5-----5h6-6p5---3--5-5-5--3---0---1--------------|
6|-5-----5-5--5-----5---------3--3-3-3--3---0---1--------------|

VERSE (gt1 clean)
4|-----8-7-------------|   |-0-|
5|---5-------8-6-6h8p6-|   |-0-|
6|-5-------5-----------|x12|-0-|

CHORUS (gt1+2 dist)
BRIDGE (gt1 dist)
6|-8-7-0-5h7-0-5h7-0-8-7-0-5h7-0--| x4

RIFF x2
4|-8-7-0-5h7-0-0---5h7-8-|
5|-8-7-0-5h7-0-0---5h7-8-|
6|-8-7-0-5h7-0-0---5h7-8-|

4|-8-7-0-5h7-0-0---8p4-|
5|-8-7-0-5h7-0-0---8p4-|
6|-8-7-0-5h7-0-0---8p4-|

CHORUS (gt2 clean)
CHORUS (gt1+2 dist)
PRE-VERSE
OUTRO x4
4|-----8-7-------------|-5-|
5|---5-------8-6-6h8p6-|-5-|
6|-5-------5-----------|-5-|

---------------------------
This file passed through:
       Absolute Tabs
   http://www.tabs.co.za
---------------------------