Guitar tablature for Overexposed by Parlotones, The (tabbed by kunuk)
#----------------------------------PLEASE NOTE---------------------------------#
#This file is the author's own work and represents their interpretation of the #
#song. You may only use this file for private study, scholarship, or research. #
#------------------------------------------------------------------------------##

Overexposed - The Parlotones
Album:  A World Next Door to Yours



Grrrrrowl! This song has a fast-break feel to it, really upbeat and
driving. It has a good mix of strumming and picking for those looking
for variety.

You may notice that I have included multiple versions of chord
fingerings. This is so you have the option of playing E-style bar
chords up and down the neck, or mixing it up with A-style bar chords
and staying near the head of the guitar. I prefer the former as I can
add in the lower bass notes as I play.

Here are the chords used in the song for quick reference:
        B       B       C#      C#      D#m     D#m      F#
e:------7-------2-------9-------4-------11-------5-------2------
B:------7-------4-------9-------6-------11-------6-------2------
G:------8-------4-------10------6-------11-------7-------3------
D:------9-------4-------11------6-------13-------7-------4------
A:------9-------2-------11------4-------13-------5-------4------
E:------7---------------9---------------11---------------2------

Have fun! Please let me know if there any changes/suggestions you have
to make the tab better,
Your Friendly Neighbourhood Kunuk – kunuk@rocketmail.com

======================================================================

INTRO:
-The strumming pattern below is repeated during the verses
       B            F#           B        F#
e:-----7-x-7--------2-x-2--------7-x-7----2--|
B:-----7-x-7--------2-x-2--------7-x-7----2--|
G:-----8-x-8--------3-x-3--------8-x-8----3--|
D:-----9-x-9--------4-x-4--------9-x-9----4--|
A:-----9-x-9--------4-x-4--------9-x-9----4--|
E:-7-7-7-x-7----2-2-2-x-2----7-7-7-x-7----2--|


VERSE1:
B                            F#
This could be the end of the system
B                        F#
This could be the end of fashion
B                        F#
This could be the end of who the hell cares
B          C#
This is my life


-This guitar riff repeats over the second part of the verse, or if you
prefer, you can play the chords below

e:----------10--------------------------------|
B:-11-10-11----11-10-11---11-10-11-10-11------|
G:---------------------------------------12-9-|
D:--------------------------------------------|
A:--------------------------------------------|
E:--------------------------------------------|

B                         F#
Do I really know what I'm doing
B                          F#
Do I really know where I'm going
B                            F#
I shiver, shake, shudder and make my mistakes
B          C#
This is my life


CHORUS:
B    F#    B           D#m      C#
Over overexposed, I've seen too much
B    F#    B           D#m      C#
Over overexposed, I've seen too much


VERSE2:
B                            F#
This could be the end of the system
B                        F#
This could be the end of fashion
B                        F#
This could be the end of who the hell cares
B          C#
This is my life


-This guitar riff repeats over the second part of the verse, or if you
prefer, you can play the chords below

e:----------10--------------------------------|
B:-11-10-11----11-10-11---11-10-11-10-11------|
G:---------------------------------------12-9-|
D:--------------------------------------------|
A:--------------------------------------------|
E:--------------------------------------------|

B                         F#
Do I really know what I'm doing
B                          F#
Do I really know where I'm going
B                            F#
I shiver, shake, shudder and make my mistakes
B          C#
This is my life


CHORUS:
B    F#    B           D#m      C#
Over overexposed, I've seen too much
B    F#    B           D#m      C#
Over overexposed, I've seen too much


CLAPPING SECTION:
-The first part of this section is just percussion and clapping

Well get over it, ah ha, get out get out
Well get over it, ah ha, get out get out

-The second part of this section mixes in this guitar lick with the lyrics below

e:-------------------|
B:----------10-------|
G:-11-10-11----11~~--|
D:-------------------|
A:-------------------|
E:-------------------|

Well get over it, ah ha, get out get out
Well get over it, ah ha, get out get out


OUTRO:
-This guitar riff closes out the song over the lyrics below

e:---------------------------------------------------------------|
B:---------------------------------------------------------------|
G:---------------------------------------------------------------|
D:-9-9-9-9-9-8-7-8-9-9-9-9-9-8-7-8-9-9-9-9-9-8-7-8-9-9-9-9-9-8-7-|
A:---------------------------------------------------------------|
E:---------------------------------------------------------------|

e:---------------------------------------------------------------||
B:---------------------------------------------------------------||
G:---------------------------------------------------------------||
D:-9-9-9-9-9-8-7-8-9-9-9-9-9-8-7-8-9-9-9-9-9-8-7-8-9-9-9-9-9-8-7-||
A:---------------------------------------------------------------||
E:---------------------------------------------------------------||

Over overexposed, I've seen too much
Over overexposed, I've seen too much

======================================================================

---------------------------
This file passed through:
       Absolute Tabs
   http://www.tabs.co.za
---------------------------