Guitar tablature for Today by Finkelstiens, The
#----------------------------------PLEASE NOTE---------------------------------#
#This file is the author's own work and represents their interpretation of the #
#song. You may only use this file for private study, scholarship, or research. #
#------------------------------------------------------------------------------##

Artist: The Finkelstiens
Song: Today
Album: Dawning Of A New Error
Tabbed by Mars

Tuning: Standard EADGBe

Intro/Verse part 1:
e|---15----15----15----15------|
B|------15----15----15----15---|
G|-----------------------------|
D|-----------------------------|
A|-----------------------------|
E|-----------------------------|

Verse part 2:
e|-----------------------------|
B|-----------------------------|
G|------2-----0-----4-----0----|
D|----0-----0-----0-----0------|
A|--0-----0-----0-----0--------|
E|-----------------------------|

e|-----------------------------|
B|-----------------------------|
G|------2-----0-----4-----2----|
D|----0-----0-----0-----0------|
A|--0-----0-----0-----0--------|
E|-----------------------------|

Chorus:
e|-----------------------------|
B|-----------------------------|
G|---------------5-5---7-7-----|
D|---5-5---7-7---5-5---7-7-----|
A|---5-5---7-7---3-3---5-5-----|
E|---3-3---5-5-----------------|

Other Chorus(higher):
e|-----------------------------|
B|-----------------------------|
G|---------------7-7---9-9-----|
D|---7-7---9-9---7-7---9-9-----|
A|---7-7---9-9---5-5---7-7-----|
E|---5-5---7-7-----------------|

Outro thing:
e|---------------------------|
B|---------------------------|
G|---11-9-7---11-11-9-7------|
D|---11-9-7---11-11-9-7------|
A|---9--7-5---9--9--7-5------|
E|---------------------------|

e|---------------------------|
B|---------------------------|
G|---11-9-7---12-12-11-9-----|
D|---11-9-7---12-12-11-9-----|
A|---9--7-5---10-10-9--7-----|
E|---------------------------|

comments/corrections mariusvanwyk22@yahoo.com

There is another part that is still missing just after the
chorus which i am still working on. But this the practicly the
whole song. So enjoy..

---------------------------
This file passed through:
       Absolute Tabs
   http://www.tabs.co.za
---------------------------