Guitar tablature for Jan Blohm by Breyton Se Brief
#----------------------------------PLEASE NOTE---------------------------------#
#This file is the author's own work and represents their interpretation of the #
#song. You may only use this file for private study, scholarship, or research. #
#------------------------------------------------------------------------------##

     SONG: Jan Blohm
   ARTIST: Breyten se brief
    ALBUM: Melkstraat Confessions
  WEBSITE:

     TYPE: Guitar Tablature
TABBED BY: Barend Landman
    EMAIL: landmanbarend@yahoo.com
COMMENTS: Lat weet wat julle dink!!

Intro
     c      am                     g               c


e:--------------------------------------------------------------------------------
b:-1--1--0--2--------0h1---1------------2---------------1-1---1-------------------
g:----------------2-----------2-----------0----------0------0---------------------
d:-------------2----------------------------0-----2-------------------------------
a:-3--3--3--0------------0----------0h2--------3----------------------------------
e:-------------------------------3------------------------------------------------
Speel dit so 4 keer deur

Chords c/b,am,g,c
    c    am     g    c
e:--0-----0-----2----0------------------------------------------------------------
b:--1-----0h1---2----1------------------------------------------------------------
g:--0-----2-----0----0------------------------------------------------------------
d:--3-----2-----0----2------------------------------------------------------------
a:--3-----0-----2----3------------------------------------------------------------
e:--0-----0-----3----0------------------------------------------------------------
Strum die am een keer dan hammer jy hom soos gewys



---------------------------
This file passed through:
       Absolute Tabs
   http://www.tabs.co.za
---------------------------