Bass tablature for Rock 'n Roll Man by The Cheap Bad Habits (tabbed by Jed)
#----------------------------------PLEASE NOTE---------------------------------#
#This file is the author's own work and represents their interpretation of the #
#song. You may only use this file for private study, scholarship, or research. #
#------------------------------------------------------------------------------##

ROCK N’ ROLL MAN

http://soundcloud.com/the-cheap-bad-habits/the-cheap-bad-habits-rock-and

INTRO
(--E----E—D----E----E—D----E----E—E—A)

MAIN INTRO
G-------------------------------------------------------------------------
D-------------------------------------------------------------------------
A--7-7--5-5--5-5------------------------------------------------------
E---------------------5-5-3-5------------------------------------------- X2

MAIN RIFF
G-------------------------------------------------------------------------
D-------------------------------------------------------------------------
A--7-7--5-5--5-5------------------------------------------------------
E---------------------5-5-3-5------------------------------------------- X3

G-------------------------------------------------------------------------
D-------------------------------------------------------------------------
A--7-7--5-5--5-5------------------------------------------------------
E---------------------5-5-3-B-------------------------------------------

PRE-CHORUS
G-------------------------------------------------------------------------
D-------------------------------------------------------------------------
A-------------------------------------------------------------------------
E--0-0-0-0-0-0-0-0--3-3-3-3--3--3--------------------------------

CHORUS
G-------------------------------------------------------------------------
D-------------------------------------------------------------------------
A-------------------------------------------------------------------------
E--7-7-5-5-5-5--0-0-3-3-3-3---------------------------------------- X4

G-------------------------------------------------------------------------
D-------------------------------------------------------------------------
A------------------------2-2-2-2-2-2-2-2-----------------------------
E--2-2-2-2-2-2-2-2----------------------------------------------------

SOLO
G-------------------------------------------------------------------------
D-------------------------------------------------------------------------
A-------------------------------------------------------------------------
E--7-7-5-5-5-5--0-0-3-3-3-3----7-7-5-5-5-5--3-3-0-0-0-0---  X4



SONG STRUCTURE
• INTRO
• MAIN INTRO
• MAIN RIFF
• PRE-CHORUS
• CHORUS
• MAIN INTRO
• MAIN RIFF
• PRE-CHORUS
• CHORUS
• SOLO
• MAIN INTRO
• MAIN RIFF
• PRE-CHORUS
• CHORUS
• END


LYRICS

Rock ‘n Roll Man
I’m a hard livin’ rock ‘n roll man
I get my get my kicks wherever I can
Three days and nights I been on this run
And I won’t stop until the day is done

Come with me on a midnight ride
You’re coming home with me tonight
Try and catch me baby, if you can
Keep up with me, I’m a rock ‘n roll man

She’s a wild lookin’ woman for sure
I saw her soon as I walked through the door
Crimson lips and a streak in her hair
I walked right up and I kissed her right there

Come with me on a midnight ride
You’re coming home with me tonight
Try and catch me baby, if you can
Keep up with me, I’m a rock ‘n roll man

I’m a fast-talkin’ sex machine
She looked about as crazy as me
Could tell she liked it by the look on her face
Come on baby let’s get out of this place

Come with me on a midnight ride
You’re coming home with me tonight
Try and catch me baby, if you can
Keep up with me, I’m a rock ‘n roll man

---------------------------
This file passed through:
       Absolute Tabs
   http://www.tabs.co.za
---------------------------