Guitar tablature for Stay And Play by Saron Gas
#----------------------------------PLEASE NOTE---------------------------------#
#This file is the author's own work and represents their interpretation of the #
#song. You may only use this file for private study, scholarship, or research. #
#------------------------------------------------------------------------------##

Band:  Saron Gas
Song:  Stay And Play
Album: Fragile

Tabbed by:   Clayton Botha
Questions/Comments: theno69@hotmail.com


Intro - Use a crunch distortion not to much gain
e|-------------------------------------------------------------|
B|-------------------------------------------------------------|
G|---------------------------------------7-7-7-7-7-6-6---------|
D|-----4-5-4-------4-5-4-------4-5-4-x-x-7-7-7-7-7-6-6---------|
A|-----4-5-4-------4-5-4-------4-5-4-x-x-5-5-5-5-5-4-4---------|
E|---0-2-3-2-----0-2-3-2-----0-2-3-2-x-x-----------------------|


Verse/Chorus - Crank up the gain & add a lot of sharp fuzzy distortion
e|-------------------------------------------------------------|
B|-------------------------------------------------------------|
G|---------------------------------------7-7-7-7-7-6-6---------|
D|-----4-5-4-x-x---4-5-4-x-x---4-5-4-x-x-7-7-7-7-7-6-6---------|
A|-----4-5-4-x-x---4-5-4-x-x---4-5-4-x-x-5-5-5-5-5-4-4---------|
E|---0-2-3-2-x-x-0-2-3-2-x-x-0-2-3-2-x-x-----------------------|


Bridge
e|-------------------------------------------------------------|
B|-------------------------------------------------------------|
G|-------------------------------------------------------------|
D|----4-x-x-4-x-x-4-7-7-7-7-7-x--------------------------------|
A|----4-x-x-4-x-x-4-7-7-7-7-7-x--------------------------------|
E|----2-x-x-2-x-x-2-5-5-5-5-5-x--------------------------------|

Solo (slow)
e|[------------------------------]x2[---9--10--12--9--10--7---]|
B|[---7--10--10-/-12--7--10--5---]x2[-------------------------]|
G|[------------------------------]x2[-------------------------]|
D|[------------------------------]x2[-------------------------]|
A|[------------------------------]x2[-------------------------]|
E|[------------------------------]x2[-------------------------]|

Support SA music at www.FriedJam.com
      www.powerzone.co.za

  /---\      /-----\
        | |=\ \    / /===\ \
        | | | |   | |     ==
  \ \      | |
      <--=\ \=====| |=======\
      <--==\ \====| |====-- |    Submitted by Clayton Botha
  _  | |   | |     | |
        | | | |    \ \    / /
        | |=| |     \ \__/ /
         \___/       \____/




---------------------------
This file passed through:
       Absolute Tabs
   http://www.tabs.co.za
---------------------------