Guitar tablature for Voor ons stof word by Van Coke Kartel (tabbed by G3752)
#----------------------------------PLEASE NOTE---------------------------------#
#This file is the author's own work and represents their interpretation of the #
#song. You may only use this file for private study, scholarship, or research. #
#------------------------------------------------------------------------------##

Jisnis!!! vir enige klagtes/verbeteringe/Vrae Email my by:
          gabriel3752@yahoo.com

Ek sê Ahoy Daar! Ek is op Twitter! So maak 'n plan en volg die man @GabrielRoux3752

Guitar 1: distorted/overdriven Electric

Guitar 2: clean electric

Guitar 3: distorted/overdriven Electric

Intro:

Guitar 1:

E|------------------------------------|
B|------------------------------------|
G|------------------------------------|  
D|------------------------------------| X2
A|-----------------------4-2----------|
e|-2-2-5-2--2-5-2--2-5-2-----5-4------|

E|------------------------------------|
B|------------------------------------|
G|------------------------------------|  
D|-----------------------4-2----------|
A|-2-2-5-2--2-5-2--2-5-2-----5-4------|
e|------------------------------------|

E|------------------------------------|
B|------------------------------------|
G|------------------------------------|  
D|------------------------------------|
A|-----------------------4-2----------|
e|-2-2-5-2--2-5-2--2-5-2-----5-4------|

Verse #1:

Guitar 1:

E|------------------------------------|
B|------------------------------------|
G|------------------------------------|  
D|------------------------------------| X2
A|-----------------------4-2----------|
e|-2-2-5-2--2-5-2--2-5-2-----5-4------|

E|------------------------------------|
B|------------------------------------|
G|------------------------------------|  
D|-----------------------4-2----------|
A|-2-2-5-2--2-5-2--2-5-2-----5-4------|
e|------------------------------------|

E|------------------------------------|
B|------------------------------------|
G|------------------------------------|  
D|------------------------------------|
A|-----------------------4-2----------|
e|-2-2-5-2--2-5-2--2-5-2-----5-4------|

Pre chorus:

Guitar 1:

E|----------------------------------------------------------|
B|----------------------------------------------------------|
G|----------------------------------------------------------|  
D|-9--9-9-9-9--9--9-9-9-9--9/5----5-5-5-5--5--5-5-5-5--5/7--|
A|-9--9-9-9-9--9--9-9-9-9--9/5----5-5-5-5--5--5-5-5-5--5/7--|
e|-7--7-7-7-7--7--7-7-7-7--7/3----3-3-3-3--3--3-3-3-3--3/5--|

E|---------------------------------------------------------|
B|---------------------------------------------------------|
G|---------------------------------------------------------|  
D|-7--7-7-7-7--7--7-7-7-7--7/9----9-9-9-9--9--9-9-9-9--9---|
A|-7--7-7-7-7--7--7-7-7-7--7/9----9-9-9-9--9--9-9-9-9--9---|
e|-5--5-5-5-5--5--5-5-5-5--5/7----7-7-7-7--7--7-7-7-7--7---|

E|------------------------------------|
B|------------------------------------|
G|------------------------------------|  
D|-4-4-4-4--2-2-2-2--4-4-4-4--5-5-5-5-|
A|-4-4-4-4--2-2-2-2--4-4-4-4--5-5-5-5-|
e|-2-2-2-2--0-0-0-0--2-2-2-2--3-3-3-3-|

Chorus #1:

Guitar 2:

F#m-A-Bm-D X4

Repeat intro:

Fill #1:

Guitar 1:

E|------------------------------------|
B|------------------------------------|
G|------------------------------------|  
D|-4~--7-9~--9/7--9~--4~--------------|
A|-4~--7-9~--9/7--9~--4~--------------|
e|-2~--5-7~--7/5--7~--2~--------------|

Repeat Pre chorus:

Chorus #2:

Guitar 3
                                          _
E|------------------------------------|    |
B|------------------------------------|    |
G|------------------------------------|    |
D|-4-4-4-4-4-4-4-4--7-7-7-7-7-7-7-7---|    |
A|-4-4-4-4-4-4-4-4--7-7-7-7-7-7-7-7---|    |
e|-2-2-2-2-2-2-2-2--5-5-5-5-5-5-5-5---|    |
                                           |X4
E|------------------------------------|    |
B|------------------------------------|    |
G|-4-4-4-4-4-4-4-4--7-7-7-7-7-7-7-7---|    |
D|-4-4-4-4-4-4-4-4--7-7-7-7-7-7-7-7---|    |
A|-2-2-2-2-2-2-2-2--5-5-5-5-5-5-5-5---|    |
e|------------------------------------|   _|


Guitar 2 plays chords:

F#m-A-Bm-D X4

Guitar 1 plays:
                                                         ___
E|-----------------------------------------------------|    |
B|-----------------------------------------------------|    |
G|-11-11-11-11-11-11-11-11--14-14-14-14-14-14-14-14----|    |
D|-x--x--x--x--x--x--x--x---x--x--x--x--x--x--x--x-----|    |
A|-9--9--9--9--9--9--9--9---12-12-12-12-12-12-12-12----|    |
e|-----------------------------------------------------|    |
                                                            |
                                                            |- X4
                                                            |
E|-----------------------------------------------------|    |
B|-----------------------------------------------------|    |
G|-16-16-16-16-16-16-16-16--19-19-19-19-19-19-19-19----|    |
D|-x--x--x--x--x--x--x--x---x--x--x--x--x--x--x--x-----|    |
A|-14-14-14-14-14-14-14-14--17-17-17-17-17-17-17-17----|    |
e|-----------------------------------------------------| ___|

Interlude:

Guitar 1: Whammy bar. I think it looks kinda like this:
         (if you dont understand me just ignore this part)
        ____  
E|-----/----\-----/~~~~---------------|
B|--17-------\---/--------------------|
G|------------\_/---------------------|  
D|------------------------------------|
A|------------------------------------|
e|------------------------------------|

E|------------------------------------|
B|------------------------------------|
G|------------------------------------|  
D|------------------------------------|
A|--2-2-3-2--2-3-2--2-3-2-5-5---------|
e|------------------------------------|

E|-------------------------------------------|
B|-------------------------------------------|
G|-------------------------------------------|  
D|------11-11-10-10-9-9-8-8-7-7-6-6-5-5-4-x--|
A|------11-11-10-10-9-9-8-8-7-7-6-6-5-5-4-x--|
e|-1/9--9--9--8--8--7-7-6-6-5-5-4-4-3-3-2-x--|

Fill #2:

Guitar 1:
                                  @
E|---------------------------------------------|
B|---------------------------------------------|
G|---------------------------------------------|  
D|-4~--9~--9~--4~--9-9-9-9-9--9---9-9-9-9-9--9-|
A|-4~--9~--9~--4~--9-9-9-9-9--9---9-9-9-9-9--9-|
e|-2~--7~--7~--2~--7-7-7-7-7--7---7-7-7-7-7--7-|


E|---------------------------------------------|
B|---------------------------------------------|
G|---------------------------------------------|  
D|-5-5-5-5-5--5--9--9--9--9--------------------|
A|-5-5-5-5-5--5--9--9--9--9--------------------|
e|-3-3-3-3-3--3--7--7--7--7--------------------|

Guitar 2: falls in at the (@)

E|----------------------------------|
B|-----7-------7------7-------7-----|
G|-------7-------7------7-------7---|  
D|----------------------------------|
A|---9-------9------9-------9-------|
e|-7-------7------7-------7---------|

E|----------------------------------|
B|-----3-------3------3-------3-----|
G|-------4-------4------4-------4---|  
D|----------------------------------|
A|---5-------5------5-------5-------|
e|-3-------3------3-------3---------|

E|----------------------------------|
B|-----7-------7------7-------7-----|
G|-------7-------7------7-------7---|  
D|----------------------------------|
A|---9-------9------9-------9-------|
e|-7-------7------7-------7---------|

Guitar 1:

E|------------------------------------|
B|------------------------------------|
G|------------------------------------|  
D|-4-4-4-4--2-2-2-2--4-4-4-4--5-5-5-5-| X2
A|-4-4-4-4--2-2-2-2--4-4-4-4--5-5-5-5-|
e|-2-2-2-2--0-0-0-0--2-2-2-2--3-3-3-3-|

Chorus 3:

Guitar 2: reapeats chorus 1:

Guitar 1 plays:

E|------------------------------------|
B|------------------------------------|
G|-9~---14~---4~---7~-----------------|  
D|-x~---x-----x----x~-----------------| X4
A|-7~---12~---2~---5~-----------------|
e|------------------------------------|

Chorus 4:

Guitar 2 : repeats chorus 1:

Guitar 3: falls in at Bm:

E|------------------------------------|
B|------------------------------------|
G|-4-4-4-4-4-4-4-4--7-7-7-7-7-7-7-7---|  
D|-4-4-4-4-4-4-4-4--7-7-7-7-7-7-7-7---|
A|-2-2-2-2-2-2-2-2--5-5-5-5-5-5-5-5---|
e|------------------------------------|

                                          _
E|------------------------------------|    |
B|------------------------------------|    |
G|------------------------------------|    |
D|-4-4-4-4-4-4-4-4--7-7-7-7-7-7-7-7---|    |
A|-4-4-4-4-4-4-4-4--7-7-7-7-7-7-7-7---|    |
e|-2-2-2-2-2-2-2-2--5-5-5-5-5-5-5-5---|    |
                                           |X3
E|------------------------------------|    |
B|------------------------------------|    |
G|-4-4-4-4-4-4-4-4--7-7-7-7-7-7-7-7---|    |
D|-4-4-4-4-4-4-4-4--7-7-7-7-7-7-7-7---|    |
A|-2-2-2-2-2-2-2-2--5-5-5-5-5-5-5-5---|    |
e|------------------------------------|   _|

Guitar 1: falls in at Bm:

E|------------------------------------|
B|------------------------------------|
G|-4-4-4-4-4-4-4-4--7-7-7-7-7-7-7-7---|  
D|-4-4-4-4-4-4-4-4--7-7-7-7-7-7-7-7---|
A|-2-2-2-2-2-2-2-2--5-5-5-5-5-5-5-5---|
e|------------------------------------|
                                                             _
E|-----------------------------------------------------|      |
B|-----------------------------------------------------|      |
G|-11-11-11-11-11-11-11-11--14-14-14-14-14-14-14-14----|      |
D|-x--x--x--x--x--x--x--x---x--x--x--x--x--x--x--x-----|      |
A|-9--9--9--9--9--9--9--9---12-12-12-12-12-12-12-12----|      |
e|-----------------------------------------------------|      |
                                                              |- X3
E|-----------------------------------------------------|      |
B|-----------------------------------------------------|      |
G|-16-16-16-16-16-16-16-16--19-19-19-19-19-19-19-19----|      |
D|-x--x--x--x--x--x--x--x---x--x--x--x--x--x--x--x-----|      |
A|-14-14-14-14-14-14-14-14--17-17-17-17-17-17-17-17----|      |
e|-----------------------------------------------------|     _|

Interlude 2:

Guitar 1: Whammy bar. I think it looks kinda like this:
         (if you dont understand me just ignore this part)
        ____  
E|-----/----\-----/~~~~---------------|
B|--12-------\---/--------------------|
G|------------\_/---------------------|  
D|------------------------------------|
A|------------------------------------|
e|------------------------------------|

E|------------------------------------|
B|------------------------------------|
G|------------------------------------|  
D|------------------------------------|
A|--2-2-3-2--2-3-2--2-3-2-5-5---------|
e|------------------------------------|

E|--------------------------------------------|
B|--------------------------------------------|
G|--------------------------------------------|  
D|------11-11-10-10-9-9-8-8-7-7-6-6-5-5-4-x-4-|
A|------11-11-10-10-9-9-8-8-7-7-6-6-5-5-4-x-4-|
e|-1/9--9--9--8--8--7-7-6-6-5-5-4-4-3-3-2-x-2-|

---------------------------
This file passed through:
       Absolute Tabs
   http://www.tabs.co.za
---------------------------