Guitar tablature for You & I by aKing (tabbed by kunuk)
#----------------------------------PLEASE NOTE---------------------------------#
#This file is the author's own work and represents their interpretation of the #
#song. You may only use this file for private study, scholarship, or research. #
#------------------------------------------------------------------------------##

You & I – aKing
Album: Against All Odds



This song may be recorded mostly on keyboard, but sounds really good
strummed slowly on an acoustic guitar. There is also a guitar solo
near the end for all those needing an electric fix.

Here are the chords used in the song for quick reference:
        Bb     C      F      Gm     
e:-------------0------1------3------
B:------3------1------1------3------
G:------3------0------2------3------
D:------3------2------3------5------
A:------1------3------3------5------
E:--------------------1------3------

Have fun! Please let me know if there any changes/suggestions you have
to make the tab better,
Your Friendly Neighbourhood Kunuk – kunuk@rocketmail.com

======================================================================

INTRO:
e:---------------------------------|
B:---------------------------------|
G:---------------------------------|
D:-3---3---3---3---3---3---3---3---|
A:---3---3---3---3---3---3---3---3-|
E:---------------------------------|


VERSE 1:
C      F       C     F  Bb
I find delight in empty days
Bb        C    F       Gm  F
I take my council with wine
C      F            C            F        Bb
my own devices have robbed me of reckless leisure
Gm    F                    C   F
my worth will be proven in time
                              C    F                
the evening follows me like a blanket
C    F    Bb
I am less convinced of anything
Bb           C    F                   Gm    F     
I don't feel wise but I've learned to love

e:---------------------------------|
B:---------------------------------|
G:-2---2---2---2---2---2---2---2---|
D:---0---0---0---0---0---0---0---0-|
A:---------------------------------|
E:---------------------------------|


CHORUS:
C     F            
culture isn't cheap
       C        F          Bb
if you bite the hands that bleed
Bb         C       F             C    F
you'll end up with blood stained teeth
C         F                                  
you are a lung full of water
           C  F     Bb        
me, I have an appetite
Gm        F
under the stress of weather
C       F
you and I


VERSE 2:
C   F       C     F     Bb
from harbouring a hardship
Bb      C  F             Gm    F
your laugh lines will be wrinkled
C          F          C        F        Bb
better the devils you know and don't, I suppose
Gm    F                 C   F
don't practice what you preach
                           C    F                
a crowd of eyes have never listened to me
C    F  Bb
I am by no means a visionary
Bb        C     F      
but I can see


CHORUS:
C     F            
culture isn't cheap
       C        F          Bb
if you bite the hands that bleed
Bb         C       F             C    F
you'll end up with blood stained teeth
C         F                                  
you are a lung full of water
           C  F     Bb        
me, I have an appetite
Gm        F
under the stress of weather
C       F
you and I


GUITAR SOLO:
e:-13-13-13-12-------------------------------------------|
B:-------------13-13-10-13-15-15-15-13-------------------|
G:-------------------------------------14-14-14-12-14----|
D:-------------------------------------------------------|
A:-------------------------------------------------------|
E:-------------------------------------------------------|

e:-13-13-13-12-------------------------------------------|
B:-------------13-13-10-13-15-15-15-13-15-17-17-17-17----|
G:----------------------------------------------------15-|
D:-------------------------------------------------------|
A:-------------------------------------------------------|
E:-------------------------------------------------------|

e:-13-13-13-12-------------------------------------------|
B:-------------13-13-10-13-15-15-15-13-------------------|
G:-------------------------------------14-14-14-12-14----|
D:-------------------------------------------------------|
A:-------------------------------------------------------|
E:-------------------------------------------------------|

e:-13-13-13-12-------------------------------------------|
B:-------------13-13-10-13-15-15-15-13-15-17-17-17-17~~~-|
G:-------------------------------------------------------|
D:-------------------------------------------------------|
A:-------------------------------------------------------|
E:-------------------------------------------------------|


OUTRO:
C      F       C     F  Bb
I find delight in empty days
Bb        C    F       Gm  F
I take my council with wine

======================================================================

---------------------------
This file passed through:
       Absolute Tabs
   http://www.tabs.co.za
---------------------------