Guitar tablature for Remember You by Indy (tabbed by kunuk)
#----------------------------------PLEASE NOTE---------------------------------#
#This file is the author's own work and represents their interpretation of the #
#song. You may only use this file for private study, scholarship, or research. #
#------------------------------------------------------------------------------##

Remember You - Indy
Album: ???


There is just something intriguing about an indie band with the name
Indy...although the spelling makes me think they are more into fast
cars than fast music...maybe both!

This is a really fun song to play as the feel changes as you progress
to different parts of the song, from acoustic to rock, from arpeggios
to chords. Except for a short key change at the bridge, the chords
remain the same so you can focus your attention on the feel.

Here are the chords used in the song for quick reference:
       Am     Bb     C      Dm     F      G      G7
e:-----0------1------0------1------1------3------1-----
B:-----1------3------1------3------1------0------0-----
G:-----2------3------0------2------2------0------0-----
D:-----2------3------2------0------3------0------0-----
A:-----0------1------3-------------3------2------2-----
E:-----0---------------------------1------3------3-----

Have fun! Please let me know if there any changes/suggestions you have
to make the tab better,
Your Friendly Neighbourhood Kunuk – kunuk@rocketmail.com

======================================================================

VERSE1: (Acoustic feel)
C                        Am
9:05 let’s all wake up I look at you
F                                        G
I think you’re still asleep so I’ll just lay back down
C                         Am
I just saw you innocently on that night
F                                  G7
I know you’re equally glad that we played it right


PRE-CHORUS: (Occasional arpeggios)
C                                  Am
Now I stand up and find you gazing right back at me
F                                   G
Ask me what I’m thinking and I just say....nothing
C                             Am
Heaven knows that I just lied first time today
F                                 G
Get your perfect moment and I had nothing to say


CHORUS: (Arpeggio/Acoustic strumming mix)
C                       Am                   F       G
Two days of romance and you thought I’d understand...yeah
C                   Am                      F
I tried too hard to raise the touch of your hand
G
I still remember you


INTERLUDE: (Purely electric)
e:-------------------|--------------------|
B:-------------------|--------------------|
G:----------2-0~~~~~-|-------2-0~~~~~~----|
D:-------------------|--------------------|
A:-33-3-2-3----------|-3-2-3--------------|
E:-------------------|--------------------|


VERSE2: (Occasional arpeggios)
C                                  Am
Trouble is that time just seems to run ahead
F                              G
Look into your eyes and I just smile and stare
C                                Am
Tell you why and tell me how did it all end
F                                  G
Trouble free, a kiss from me still came ahead


PRE-CHORUS: (Occasional arpeggios)
C                                  Am
Now I stand up and find you gazing right back at me
F                                   G
Ask me what I’m thinking and I just say....nothing
C                             Am
Heaven knows that I just lied second time today
F                                 G
Get your perfect moment and I had nothing to say


CHORUS: (Purely electric with some first/fifth picking)
C                       Am                   F       G
Two days of romance and you thought I’d understand...yeah
C                   Am                      F
I tried too hard to raise the touch of your hand
G
I still remember you


INTERLUDE: (Up the distortion)
   C5            A5           F5          G5     
e:-----------------------------------------------------|
B:-----------------------------------------------------|
G:-5-5--5-5-5------------------------------------------|
D:-5-5--5-5-5---7-7--7-7-7---3-3--3-3-3---5-5--5-5-5---|
A:-3-3--3-3-3---7-7--7-7-7---3-3--3-3-3---5-5--5-5-5---|
E:--------------5-5--5-5-5---1-1--1-1-1---3-3--3-3-3---|

   C5            A5           F5          G5     
e:-----------------------------------------------------|
B:-----------------------------------------------------|
G:-5-5--5-5-5------------------------------------------|
D:-5-5--5-5-5---7-7--7-7-7---3-3--3-3-3---5-5--5-5-5---|
A:-3-3--3-3-3---7-7--7-7-7---3-3--3-3-3---5-5--5-5-5---|
E:--------------5-5--5-5-5---1-1--1-1-1---3-3--3-3-3---|


BRIDGE: (Key change)
F           Bb              C         F
The perfect moment and this imperfect girl
F           Bb                 C              Dm
I’ll try forever to forget the truth I had to learn


CHORUS:  (Soft arpeggio feel....building heavier to outro)
C                       Am                   F       G
Two days of romance and you thought I’d understand...yeah
C                   Am                      F
I tried too hard to raise the touch of your hand
C                       Am                   F       G
Two days of romance and you thought I’d understand...yeah
C                   Am                      F
I tried too hard to raise the touch of your hand
G
I still remember you


OUTRO:
e:-------------------|--------------------|
B:-------------------|--------------------|
G:----------2-0~~~~~-|----------2-0~~~~~~-|
D:-------------------|--------------------|
A:-33-3-2-3----------|-33-3-2-3-----------|
E:-------------------|--------------------|

Still remember you...

e:-------------------|--------------------||
B:-------------------|--------------------||
G:----------2-0~~~~~-|----------2-0~~~~~~-||
D:-------------------|--------------------||
A:-33-3-2-3----------|-33-3-2-3-----------||
E:-------------------|--------------------||

======================================================================

---------------------------
This file passed through:
       Absolute Tabs
   http://www.tabs.co.za
---------------------------