Guitar tablature for Nintendo by Saint Dragon
*******************************************************
*** OFFICIAL TABLATURE SUPPLIED BY SAINT DRAGON FOR ***
***      ABSOLUTE TABS  http://www.tabs.co.za       ***
*******************************************************
        

OCTOBER 2001
------------
Track    NINTENDO  
Artist   SAINT DRAGON
Website  www.audiogalaxy.com/bands/saintdragon
E-mail   cunhajustin@hotmail.com / rory_gil@hotmail.com

Intro
----------------------------------------------------------------------
----------------------------------------------------------------------
--9-9-9-9---11-11-11-11---13-13-13-13---11-11-11-11-------------------
----------------------------------------------------------------------
--7-7-7-7----9--9--9--9---11-11-11-11----9--9--9--9-------------------
----------------------------------------------------------------------

----------------------------------------------------------------------
----------------------------------------------------------------------
--9-9-9-9---11-11-11-11---13-13-13-13---11-11-11-11-------------------
----------------------------------------------------------------------
--7-7-7-7----9--9--9--9---11-11-11-11----9--9--9--9-------------------
----------------------------------------------------------------------



  E        B   A        B         E      B    A          B       E
Everyday I wish to get better,get more nuts and a bigger sword.I live
    B             A        B              E      B       A       B
in my dreams and Link is here with me as we head on down to the Deku
       E       B     A      B    E        B            A       B
tree.Me and Mario, Mr Miyamoto are going downtown to kick Bowsers ass,
  E          B      A          B      E         B         A           
Kranky`s got a message from EAD now Donkey kong jnr`s gotta free his
B
pops.
                    --------------
   A                   B                   G#        A        A    
As long as we`ve got a 4th player at the end of the day,i`ve got this
     B                G#                   A
feeling everything`s gonna turn out to be OK

                    --------------
E     B    A      B
Wooooo ooooh Nintendo
E     B    A      B
Wooooo ooooh Nintendo

                    --------------

----------------------------------------------------------------------
----------------------------------------------------------------------
--9-9-9-9---11-11-11-11---13-13-13-13---11-11-11-11-------------------
----------------------------------------------------------------------
--7-7-7-7----9--9--9--9---11-11-11-11----9--9--9--9-------------------
----------------------------------------------------------------------

                    --------------
E             B             A     B        E     B       A     B  
Yesterday we received a distress signal planet Zebes needs a bounty
        E         B     A            B       E        B         A
hunter Han Solo and Chewbacca won`t do when Samus Aran`s gonna make
   B       E               B           A             B
a stand. Some people like their Sony but i think that their crazy,
   E       B               A            B             E        B
a guy with funny glasses is trying to sell me a box, but if you`ld like
     A             B           E       B         A         B
to join me,joanna and elvis we`re gonna shoot trent easton and leave

luck to heaven.

                    --------------

   A                   B                   G#        A        A    
As long as we`ve got a 4th player at the end of the day,i`ve got this
     B                G#                   A
feeling everything`s gonna turn out to be OK

                    --------------

E     B    A      B
Wooooo ooooh Nintendo
E     B    A      B
Wooooo ooooh Nintendo

E     B    A      B
Wooooo ooooh Nintendo
E     B    A      B
Wooooo ooooh Nintendo



---------------------------
This file passed through:
       Absolute Tabs
   http://www.tabs.co.za
---------------------------